Oops, an error
Loading. Please wait.

21St Century Schizoid Man bass

version 1
version 1

Whole song

Interactive

31,575 views 39 this week
3 commentsread comments
1 2 3 4 5
x 10
add to favorites
×
Save as Personal and add changes to this tab that will be seen only by you. Learn more ›
×
You can save this tab as Personal to edit and correct it or add notes. All changes will be seen only by you. Learn more »
launch autoscroll
font size
0
reset
guitar tuner
backing track
0:00
0:00
edit
Autoscroll
slow
fast
+/-
esc
set tempo
stop
Author
Unregistered
21st Century Schizoid Man
                                  King Crimson
                                                      Transcribed by Justin Benz

     Wind, Sounds            0:27
G|---|-----------------------||---------------------------|----------------------|
D|---|-----------------------||*--------------------------|----------------------|
A|---|-----------------------||*--3-----3-----3-----3-----|----------------------|
E|---|-----------------------||---------------------------|--1--------2----------|

G|---------|-----------------------------|--------------------------|------------|
D|---------|-----------------------------|--------------------------|------------|
A|---------|--3-----3--3-----3-----3--3--|--------------------------|--3---------|
E|---3-----|-----------------------------|--1--------2--------3-----|------------|

G|---------------------------|--------------------------|-----------------|------|
D|---------------------------|--------------------------|-----------------|------|
A|---3--3-----3--3-----3--3--|--------------------------|--3--------------|------|
E|---------------------------|--1--------2--------3-----|-----------------|------|

G|---------------------|-----------5-----------------5--|------------||----------|
D|---------------------|--------------------------------|-----------*||----------|
A|------------------15\|--3-----3-----------3-----3-----|--1--------*||--3-------|
E|---------------------|--------------------------------|------------||----------|

G|------------------------|--------------------------|---------------------------|
D|------------------------|--------------------------|---------------------------|
A|---3--3-----3-----3--3--|--------------------------|--3-----3--3-----3---------|
E|------------------------|--1--------2--------3-----|---------------------------|

G|---------|--------------------------|--------------------------------|---------|
D|---------|--------------------------|--------------------------------|---------|
A|---3--3--|--------------------------|--3-----3--3-----3--3-----3--3--|---------|
E|---------|--1--------2--------3-----|--------------------------------|--1------|

G|------------------------|--------------------------|---------------------------|
D|------------------------|--------------------------|---------------------------|
A|------------------------|--------------------------|---------------------------|
E|---------2--------3-----|--1--------2--------3-----|--1-----2-----3-----1------|

                                         2:05
G|---------------------------------------|-----------------------------|---------|
D|---------------------------------------|-----------------1--2--3-----|---------|
A|---------------------------------------|--3--3-----3--3--------------|--3------|
E|------2-----3-----1--2--3--1--2--3-----|-----------------------------|---------|

G|---------------------------|-----5--------------|------------------------------|
D|---------------------------|--------5--6--3--5--|--------5-----------5---------|
A|---3-----3--3--2--1--------|--3-----------------|------------------------------|
E|---------------------3-----|--------------------|--3--3--------3--3------------|

G|---|-----5--------------|--------------------|--------------------|------------|
D|---|--------5--6--3--5--|-----3--------------|-----------3--5--6--|------------|
A|---|--3-----------------|--6-----5-----------|--3--5--6-----------|------------|
E|---|--------------------|-----------3--3--3--|--------------------|--3--3------|

G|-----------|------17--15--------------|-------------------------|--------------|
D|---5-----5/|--------------19--15--17--|--------------18--18--17\|--------------|
A|-----------|--15----------------------|--18--18--17-------------|--3--3--------|
E|------3----|--------------------------|-------------------------|--------------|

G|---------------|--------------------------|-----5--3-----------|---------------|
D|------1--3--4--|--------5-----------5-----|-----------7--3--5--|---------------|
A|---3-----------|--------------------------|--3-----------------|--6--6--5------|
E|---------------|--3-----------3-----------|--------------------|---------------|

G|------------|-----5--3-----------|--------------------|------------------------|
D|---6--6--5--|-----------5--5--5--|--5--5--5--5--5--5--|------------------------|
A|------------|--3-----------------|--------------------|--1h3--3--3--1h3--3-----|
E|------------|--------------------|--------------------|------------------------|

G|------|----------------------|------------------------|------------------------|
D|------|-------------1--1--3--|------------------------|------------------------|
A|---3--|--1h3--3--3-----------|--1h3--3--3--1h3--3--3--|--1h3--3--3-------------|
E|------|----------------------|------------------------|-------------3--3--3----|

G|---|--------------------------|-----------------------|------------------------|
D|---|--------------------------|--------------------3--|------------------------|
A|---|--3--3--3-----5--5--5-----|--6--6--6-----5--5-----|--1h3--3--3--1h3--3-----|
E|---|--------------------------|-----------------------|------------------------|

G|------|----------------------|-------------------------------------------------|
D|------|----------------------|--------------------------12--12--12--12--12-----|
A|---3--|--1h3--3--3--1--------|--10--10--10--10--10--10-------------------------|
E|------|----------------3--1--|-------------------------------------------------|

G|-------|--12--12--12--12--12--12--------------|--------------------------------|
D|---12--|--------------------------12--12--12--|------------------------12------|
A|-------|--------------------------------------|--10--10-----10--10-------------|
E|-------|--------------------------------------|--------------------------------|

G|---------------------|--12--12-----12--12-----12----------|--------------------|
D|---12-----12--12-----|----------------------------12--12--|--10-----10---------|
A|---------------------|------------------------------------|-------------13-----|
E|---------------------|------------------------------------|--------------------|

G|---10-----|------10-----------------|-----------------10-----|------10---------|
D|----------|-------------------------|--10-----10-------------|-----------------|
A|----------|--12---------11--11--10--|-------------13---------|--12-------------|
E|----------|-------------------------|------------------------|-----------------|

G|---------------|-----------------10-----|------10-----------------|------------|
D|---------------|--10-----10-------------|-------------------------|--10--------|
A|---11--11--10--|-------------13---------|--12---------11--11--10--|------------|
E|---------------|------------------------|-------------------------|------------|

G|------------------|-------------------------|-----------------|----------------|
D|---10-------------|-------------------------|-----------1--3--|----------------|
A|-------13-----13--|--12-----12--11--11--10--|--3-----3--------|--3-----1-------|
E|------------------|-------------------------|-----------------|-----------3----|

G|------|-----5--------------|--------------------------|-----------------|------|
D|------|--------5--6--3--5--|--------5-----------5-----|--------1--3--1--|------|
A|------|--3-----------------|--------------------------|--3--------------|------|
E|---1--|--------------------|--3-----------3-----------|-----------------|------|

G|------------------|--------------------|----------------------|--------17------|
D|------------------|--------1--3--1-----|--5--(3)h5--(3)h5--5--|----------------|
A|---3-----1--------|--3-----------------|----------------------|/15-------------|
E|------------3--1--|--------------------|----------------------|----------------|

G|---15------|---------------------|--5-----3-----------|------------------------|
D|-------19--|--15--17-------------|-----------7-----6--|--5-----3---------------|
A|-----------|----------18-----17--|--------------------|-----------6-----5------|
E|-----------|---------------------|--------------------|------------------------|

G|---|--------------------|-----------------|------------------------------------|
D|---|-----------1-----3--|-----------------|-----------1-----3--(3)h5--(3)------|
A|---|--3-----3-----------|--3-----1--------|--3-----3---------------------------|
E|---|--------------------|-----------4--3--|------------------------------------|

G|-------------|--------5--3-----|--------------------|--------------------|-----|
D|---h5--5--5--|--------------7--|-----3--5-----------|-----------------3--|-----|
A|-------------|--3--------------|-----------6-----5--|--3--3--6--5--5-----|-----|
E|-------------|-----------------|--------------------|--------------------|-----|

G|-----------------------|-------------15-----17p15/19-----17--15------|---------|
D|---5--5--5--5--5--8/x--|---------17------------------------------15--|--17-----|
A|-----------------------|--15-----------------------------------------|---------|
E|-----------------------|---------------------------------------------|---------|

G|------------------------------|--------------------|--------------------|------|
D|---(15)h17--(15)h17--(15)h17--|------17-----17--17\|-----------1--3--1--|------|
A|------------------------------|--------------------|--3-----3-----------|------|
E|------------------------------|--15----------------|--------------------|------|

G|---------------------|--------------------|--------------------------|---------|
D|---------------------|-----------1-----3--|--(3)h5--(3)h5--(3)h5--5--|---------|
A|---3-----3--1--------|--3-----3-----------|--------------------------|--3------|
E|------------------3--|--------------------|--------------------------|---------|

                                                              3:31
G|---5--------------|--------------------|--------------------|------------------|
D|------5--6--3--5--|-----3--------------|-----------3--5--6--|--5--5--5--5------|
A|------------------|--6-----5-----------|--3--5--6-----------|------------------|
E|------------------|-----------3--3--3--|--------------------|------------------|

G|---------|--------------------|--------------------|--------------------|------|
D|---5--5--|--5--5--5--5--5--5--|--5--5--5--3--------|-----------1--3--1--|------|
A|---------|--------------------|--------------6--5--|--3-----3-----------|------|
E|---------|--------------------|--------------------|--------------------|------|

G|---------------------|--------------------|--------3--2-----5--|--------5------|
D|---------------------|--------1--3-----4--|--5-----------------|---------------|
A|---3-----1-----------|--3-----------------|--------------------|--3------------|
E|------------3--1--3--|--------------------|--------------------|---------------|

G|---3--------|--------------------|--------------------|------------------------|
D|---------7--|--3-----5--------5--|-----------------3--|--5--(3)h5-----5--5-----|
A|------------|-----------6--5-----|--3-----6--5--------|------------------------|
E|------------|--------------------|--------------------|------------------------|

G|-----|---------17--15---------|-----------------------|------------------------|
D|---5/|--------------------19--|--15-----17------------|--------1--3-----4------|
A|-----|--15--------------------|-------------18-----17\|--3---------------------|
E|-----|------------------------|-----------------------|------------------------|

G|---|-----------------------|--------5--3--------|--------------------|---------|
D|---|--5-----------5--------|--------------7--3--|--5--5--3-----------|---------|
A|---|-----------------------|--3--3--------------|-----------6--6--5--|--3------|
E|---|--------3-----------3--|--------------------|--------------------|---------|

G|------------------|-------------------|----------------------|-----------------|
D|---------------3--|--5-----5--5-----5/|--10-----10--8-----8--|--7-----7--6-----|
A|------6--5--------|-------------------|----------------------|-----------------|
E|------------------|-------------------|----------------------|-----------------|

G|---------|--------------------|--------------------|--------------------|-------|
D|------6--|--5-----5-----------|--------------------|-----------1-----3--|-------|
A|---------|-----------8-----8--|--6-----6--5-----5--|--3-----3-----------|-------|
E|---------|--------------------|--------------------|----------------------------|

************************************

| *    Natural harmonic
| \    Slide down
| /    Slide up
| h    Hammer-on
| (n)  Ghost note
| p    Pull-off

************************************

            
            
Suggest correction
Creating personal tab
Creating personal tab
You can edit any tab online and save it as your Personal.

You can edit, replace or remove any tab part or add personal notes – all changes will be seen only by you.

Personal tabs can be accessed anytime from any device, even offline.
Learn more »
comments
print report bad tab
3 comments total.
0 reply
cman500 219 Jul 15, 2007 11:56 AM

wheres the rest of the song

0 reply
brimtastic 10 Nov 20, 2009 06:44 AM

Cut short, but apart from that, very good.

0 reply
giulio.serroni 33 Jul 18, 2015 08:26 AM

Lack of accuracy. There aint the last part, which is the best one (in my opinion) therefore I don't like this sheet, I'm sorry, man

guest
Wanna post a correction for this tab? Suggest correction