Oops, an error
Loading. Please wait.

Larks Tongues In Aspic Part Ii tab

version 2
version 2

Whole song

Interactive

19,071 views 33 this week
no commentswrite comment
1 2 3 4 5
x 10
add to favorites
×
Save as Personal and add changes to this tab that will be seen only by you. Learn more ›
×
You can save this tab as Personal to edit and correct it or add notes. All changes will be seen only by you. Learn more »
launch autoscroll
font size
0
reset
how to read this tab
guitar tuner
backing track
0:00
0:00
edit
Autoscroll
slow
fast
+/-
esc
set tempo
stop
Author
Tuning: Standard (E-A-D-G-B-E’)

(Section 1)
e|--------------------------------|  x3
B|--------------------------------|
G|--3--x--x--3--x--x--3--x--3--x--|
D|--3--x--x--3--x--x--3--x--3--x--|
A|--3--x--x--3--x--x--3--x--3--x--|
E|--------------------------------|

e|--------------------------|
B|--------------------------|
G|--------------------------|
D|--------6--------6-----5--|
A|-----5--------5-----4-----|
E|--3--------3--------------|

e|--------------------------------------------------------|
B|--------------------------------------------------------|
G|--3--x--x--3--x--x--3--x--3--x--3--x--x--3--x—-x--3--x--|
D|--3--x--x--3--x--x--3--x--3--x--3--x--x--3--x—-x--3--x--|
A|--3--x--x--3--x--x--3--x--3--x--3--x--x--3--x—-x--3--x--|
E|--------------------------------------------------------|

e|--------------------------------------------------|
B|-----------------------7^-------------------------|
G|---------------------6----------9--------9-----8--|
D|--------6--4-------5---------8--------8-----7-----|
A|-----5--------3--4--------6--------6--------------|
E|--3-----------------------------------------------|

e|--------------------------------------------------------|
B|--3--x--x--3--x--x--3--x--3--x--3--x--x--3--x--x--3--x--|
G|--5--x--x--5--x--x--5--x--5--x--5--x--x--5--x--x--5--x--|
D|--4--x--x--4--x--x--4--x--4--x--4--x--x--4--x--x--4--x--|
A|--------------------------------------------------------|
E|--------------------------------------------------------|

e|--------------------------------------------------|
B|-----------------------7^-------------------------|
G|---------------------6----------------------------|
D|--------6--4-------5-----------10-------10-----9--|
A|-----5--------3--4-----------9--------9-----8-----|
E|--3-----------------------7--------7--------------|

e|---------------------------------------------------------------|
B|--10--x--x--10--x--x--10--x--10--x--10--x—-x--10--x--x--10--x--|
G|--11--x--x--11--x--x--11--x--11--x--11--x—-x--11--x--x--11--x--|
D|--12--x--x--12--x--x--12--x--12--x--12--x—-x--12--x--x--12--x--|
A|---------------------------------------------------------------|
E|---------------------------------------------------------------|

e|--------------------------------------------------|
B|----------------------11^-------------------------|
G|--------------------10---------13-------13----12--|
D|-------10--8-------9--------12-------12----11-----|
A|-----9--------7--8-------10-------10--------------|
E|--7-----------------------------------------------|

e|---------------------------------------------------------------|
B|---------------------------------------------------------------|
G|--10--x--x--10--x--x--10--x--10--x--10--x--x--10--x--x--10--x--|
D|--11--x--x--11--x--x--11--x--11--x--11--x--x--11--x--x--11--x--|
A|--10--x--x--10--x--x--10--x--10--x--10--x--x--10--x--x--10--x--|
E|---------------------------------------------------------------|

e|---------------------------|
B|-----------------------7^--|
G|---------------------6-----|
D|--------6--4-------5-------|
A|-----5--------3--4---------|
E|--3------------------------|

(Section 2) (x2)
e|------------------------------------|
B|------------------------------------|
G|--2--------2--------2--------2---4--|
D|--3--------3--------3--------3---5--|
A|--------5--------5--------5---------|
E|------------------------------------|

e|--------------------------------| (x3)
B|--------------------------------|
G|--2--------2--------2-----2--4--|
D|--3--------3--------3-----3--5--|
A|--------5--------5-----5--------|
E|--------------------------------|

e|--------------------------------| (x4)
B|--------------------------------|
G|--5--------5--------5-----5--7--|
D|--6--------6--------6-----6--8--|
A|--------8--------8-----8--------|
E|--------------------------------|

e|--------------------------------| (x2)
B|--------------------------------|
G|--8--------8--------8-----8-10--|
D|-10-------10-------10----10-11--|
A|-------11-------11----11--------|
E|--------------------------------|

e|-----------------------------------|
B|-----------------------------------|
G|--8--------8--------8-----8-10-11--|
D|-10-------10-------10----10-11-12--|
A|-------11-------11----11-----------|
E|-----------------------------------|

(Section 3)
e|--------------------------------|  (x8)
B|--------------------------------|
G|--3--x--x--3--x--x--3--x--3--x--|
D|--3--x--x--3--x--x--3--x--3--x--|
A|--3--x--x--3--x--x--3--x--3--x--|
E|--------------------------------|

e|--------------------------|
B|--------------------------|
G|--------------------------|
D|--------6--------6-----5--|
A|-----5--------5-----4-----|
E|--3--------3--------------|

e|--------------------------------------------------------|
B|--------------------------------------------------------|
G|--3--x--x--3--x--x--3--x--3--x--3--x--x--3--x—-x--3--x--|
D|--3--x--x--3--x--x--3--x--3--x--3--x--x--3--x—-x--3--x--|
A|--3--x--x--3--x--x--3--x--3--x--3--x--x--3--x—-x--3--x--|
E|--------------------------------------------------------|

e|---------------------------------------------------|
B|-----------------------7^--------------------------|
G|---------------------6----------13-------13----12--|
D|--------6--4-------5---------12-------12----11-----|
A|-----5--------3--4--------10-------10--------------|
E|--3------------------------------------------------|

e|--------------------------------------------------------|
B|--3--x--x--3--x--x--3--x--3--x--3--x--x--3--x--x--3--x--|
G|--5--x--x--5--x--x--5--x--5--x--5--x--x--5--x--x--5--x--|
D|--4--x--x--4--x--x--4--x--4--x--4--x--x--4--x--x--4--x--|
A|--------------------------------------------------------|
E|--------------------------------------------------------|

e|---------------------------|
B|-----------------------7^--|
G|---------------------6-----|
D|--------6--4-------5-------|
A|-----5--------3--4---------|
E|--3------------------------|

(Section 4)
e|------------------------------------|
B|------------------------------------|
G|--2--------2--------2--------2---4--|
D|--3--------3--------3--------3---5--|
A|--------5--------5--------5---------|
E|------------------------------------|

e|--------------------------------| (x3)
B|--------------------------------|
G|--2--------2--------2-----2--4--|
D|--3--------3--------3-----3--5--|
A|--------5--------5-----5--------|
E|--------------------------------|

e|--------------------------------| (x4)
B|--------------------------------|
G|--5--------5--------5-----5--7--|
D|--6--------6--------6-----6--8--|
A|--------8--------8-----8--------|
E|--------------------------------|

e|--------------------------------| (x4)
B|--------------------------------|
G|--8--------8--------8-----8-10--|
D|-10-------10-------10----10-11--|
A|-------11-------11----11--------|
E|--------------------------------|

e|--------------------------------| (x4)
B|--------------------------------|
G|-11-------11-------11----11-13--|
D|-12-------12-------12----12-14--|
A|-------14-------14----14--------|
E|--------------------------------|

e|--------------------------------| (x3)
B|--------------------------------|
G|-14-------14-------14----14-16--|
D|-15-------15-------15----15-17--|
A|-------17-------17----17--------|
E|--------------------------------|

e|--------------------------------| (x3)
B|--------------------------------|
G|-17-------17-------17----17-19--|
D|-18-------18-------18----18-20--|
A|-------20-------20----20--------|
E|--------------------------------|

e|--------------------------------| (x2)
B|--------------------------------|
G|-20-------20-------20----20-22--|
D|-22-------22-------22----22-23--|
A|-------23-------23----23--------|
E|--------------------------------|

e|------| (x25)
B|------|
G|--23--|
D|--24--|
A|------|
E|------|

e|----------------------------------| (x2)
B|-16-------16-------16----16-18----|
G|-17-------17-------17----17-18----|
D|-------18-------18----18----------|
A|----------------------------------|
E|----------------------------------|

e|------| (x25)
B|--19--|
G|--19--|
D|------|
A|------|
E|------|

(Section 5)
e|--------------------------------------------------|
B|--------------------------------------------------|
G|--------------------------------------------------|
D|--5--6-----6--5-----3--5-----5--6-----6--5-----3--|
A|--5--6-----6--5-----3--5-----5--6-----6--5-----3--|
E|--3--4-----4--3-----1--3-----3--4-----4--3-----1—-|

(2-bar rest, then:)
e|--------------------------------------------------| (x8)
B|--------------------------------------------------|
G|--------------------------------------------------|
D|--5--6-----6--5-----3--5-----5--6-----6--5-----3--|
A|--5--6-----6--5-----3--5-----5--6-----6--5-----3--|
E|--3--4-----4--3-----1--3-----3--4-----4--3-----1—-|

e|--------------------------------------------------|
B|--------------------------------------------------|
G|--7--------7--------7--------7--9-----------------|
D|--8--------8--------8--------8-10-----------------|
A|-------10-------10-------10-----------------------|
E|--------------------------------------------------|

e|-----------------------------------------------| (x3)
B|-----------------------------------------------|
G|--7--------7--------7-----7--9-----------------|
D|--8--------8--------8-----8-10-----------------|
A|-------10-------10----10-----------------------|
E|-----------------------------------------------|

e|-----------------------------------------------| (x4)
B|-----------------------------------------------|
G|-10-------10-------10----10-12-----------------|
D|-12-------12-------12----12-13-----------------|
A|-------13-------13----13-----------------------|
E|-----------------------------------------------|

(Section 6)
e|--------------------------------| (x4)
B|--------------------------------|
G|--2--------2--------2-----2--4--|
D|--3--------3--------3-----3--5--|
A|--------5--------5-----5--------|
E|--------------------------------|

e|--------------------------------| (x4)
B|--------------------------------|
G|--5--------5--------5-----5--7--|
D|--6--------6--------6-----6--8--|
A|--------8--------8-----8--------|
E|--------------------------------|

e|--------------------------------| (x4)
B|--------------------------------|
G|--8--------8--------8-----8-10--|
D|-10-------10-------10----10-11--|
A|-------11-------11----11--------|
E|--------------------------------|

e|--------------------------------| (x4)
B|--------------------------------|
G|-11-------11-------11----11-13--|
D|-12-------12-------12----12-14--|
A|-------14-------14----14--------|
E|--------------------------------|

e|--------------------------------| (x3)
B|--------------------------------|
G|-14-------14-------14----14-16--|
D|-15-------15-------15----15-17--|
A|-------17-------17----17--------|
E|--------------------------------|

e|--------------------------------| (x3)
B|--------------------------------|
G|-17-------17-------17----17-19--|
D|-18-------18-------18----18-20--|
A|-------20-------20----20--------|
E|--------------------------------|

e|--------------------------------| (x2)
B|--------------------------------|
G|-20-------20-------20----20-22--|
D|-22-------22-------22----22-23--|
A|-------23-------23----23--------|
E|--------------------------------|

e|------| (x35)
B|------|
G|--23--|
D|--24--|
A|------|
E|------|

(Shorter neck guitars)
e|----------------------------------| (x2)
B|-16-------16-------16----16-18----|
G|-17-------17-------17----17-18----|
D|-------18-------18----18----------|
A|----------------------------------|
E|----------------------------------|

e|------| (x35)
B|--19--|
G|--19--|
D|------|
A|------|
E|------|



************************************

| x  Dead note

************************************

            
            
Suggest correction
Creating personal tab
Creating personal tab
You can edit any tab online and save it as your Personal.

You can edit, replace or remove any tab part or add personal notes – all changes will be seen only by you.

Personal tabs can be accessed anytime from any device, even offline.
Learn more »
comments
print report bad tab
guest
You may want to rate the tab now too:
select rating
Wanna post a correction for this tab? Suggest correction