Oops, an error
Loading. Please wait.

Trick Or Treat bass

version 1
version 1

Whole song

Interactive

274 views 1 this week
no commentswrite comment
1 2 3 4 5
3 more votes to show rating
add to favorites
×
Save as Personal and add changes to this tab that will be seen only by you. Learn more ›
×
You can save this tab as Personal to edit and correct it or add notes. All changes will be seen only by you. Learn more »
launch autoscroll
font size
0
reset
guitar tuner
backing track
0:00
0:00
edit
Autoscroll
slow
fast
+/-
esc
set tempo
stop
G||--------------------------|--------------------------|
D||--------------------------|--------------------------|
A||--------------------------|--------------------------|
E||--4--4--4--4--4--4--4--4--|--4--4--4--4--4--4--4--4--|

--------------------------|--------------------------|
--------------------------|--------------------------|
--------------------------|--------------------------|
--4--4--4--4--4--4--4--4--|--4--4--4--4--4--4--4--4--|

--------------------------|--------------------------|------------|
--------------------------|--------------------------|------------|
--------------------------|--------------------------|------------|
--4--4--4--4--4--4--4--4--|--4--4--4--4--4--4--4--4--|--5----4----|

--------------------------|--------------------------|
--------------------------|--------------------------|
--------------------------|--------------------------|
--4--4--4--4--4--4--4--4--|--4--4--4--4--4--4--4--4--|

--------------------------|------------------------|--------------------------|
--------------------------|------------------------|--------------------------|
--------------------------|------------------------|--------------------------|
--4--4--4--4--4--4--4--4--|--4--4--4--4--5----4----|--4--4--4--4--4--4--4--4--|

--------------------------|--------------------------|
--------------------------|--------------------------|
--------------------------|--------------------------|
--4--4--4--4--4--4--4--4--|--4--4--4--4--4--4--4--4--|

--------------------------|--------------|--------------------------|
--------------------------|--------------|--------------------------|
--------------------------|--------------|--------------------------|
--4--4--4--4--4--4--4--4--|--4--4--4--4--|--4--4--4--4--4--4--4--4--|

-------------------|-------------------|--9----------------|--8----------------|
-------------------|-------------------|-------------------|-------------------|
--7----------------|--6----------------|-------------------|-------------------|
-------------------|-------------------|-------------------|-------------------|

--9----------------|--11----------------|-------------------|
-------------------|--------------------|-------------------|
-------------------|--------------------|-------------------|
-------------------|--------------------|--4----------------|

-------------------|-------------------|----------------------|
-------------------|-------------------|----------------------|
-------------------|-------------------|--6------9------12----|
--4----------------|--4----------------|----------------------|

-------------------|-------------------|-------------------|
-------------------|-------------------|-------------------|
-------------------|-------------------|-------------------|
--4----------------|--4----------------|--4----------------|

---------------------|----------------------|----------------------|
---------------------|----------------------|----------------------|
---------------------|----------------------|----------------------|
--7------6------7----|--4----4----4--5------|--4----4----4--5------|

----------------------|----------------------|----------------------|
----------------------|----------------------|----------------------|
----------------------|--6------9------12----|----------------------|
--4----4----4--5------|----------------------|--4----4----4--5------|

----------------------|----------------------|----------------------|
----------------------|----------------------|----------------------|
----------------------|----------------------|--6------9------12----|
--4----4----4--5------|--4----4----4--5------|----------------------|

----------------------|-------------------------|-----------------------|
----------------------|----------4--5--4--------|-----------------------|
-------------7--------|----5--7-----------7--5--|-------------7----5----|
--0--0----0-----------|-------------------------|--0--0----0------------|

----------------------|----------------------|-------------------------|
----------------------|----------------------|----------4--5--4--------|
----7----5--5----7----|-------------7--------|----5--7-----------7--5--|
----------------------|--0--0----0-----------|-------------------------|

-----------------------|----------------------|----------------------|
-----------------------|----------------------|----------------------|
-------------7----5----|----7----5--5----7----|----------------------|
--0--0----0------------|----------------------|--4----4----4--5------|

----------------------|----------------------|----------------------|
----------------------|----------------------|----------------------|
----------------------|----------------------|--6------9------12----|
--4----4----4--5------|--4----4----4--5------|----------------------|

----------------------|----------------------|----------------------|
----------------------|----------------------|----------------------|
----------------------|----------------------|----------------------|
--4----4----4--5------|--4----4----4--5------|--4----4----4--5------|

----------------------|----------------------|-------------------------|
----------------------|----------------------|----------4--5--4--------|
--6------9------12----|-------------7--------|----5--7-----------7--5--|
----------------------|--0--0----0-----------|-------------------------|

-----------------------|----------------------|----------------------|
-----------------------|----------------------|----------------------|
-------------7----5----|----7----5--5----7----|-------------7--------|
--0--0----0------------|----------------------|--0--0----0-----------|

-------------------------|-----------------------|----------------------|
----------4--5--4--------|-----------------------|----------------------|
----5--7-----------7--5--|-------------7----5----|----7----5--5----7----|
-------------------------|--0--0----0------------|----------------------|

------------------------|-------------------|------------------------|
--4---------------4-----|-------------------|--4---------------4-----|
------------------------|--3----------------|------------------------|
-----2----2----2-----2--|-------------------|-----2----2----2-----2--|

---------------------|------------------------|-------------------|
---------------------|--4---------------4-----|-------------------|
--6------5------3----|------------------------|--3----------------|
---------------------|-----2----2----2-----2--|-------------------|

------------------------|---------------------|
--4---------------4-----|---------------------|
------------------------|--3------2------0----|
-----2----2----2-----2--|---------------------|

--------------------------------------|--------------------------------------|
--------------------------------------|--------------------------------------|
--------------------------------------|--------------------------------------|
--0--0--0--0--0--0--0--0--0--0--0--0--|--0--0--0--0--0--0--0--0--0--0--0--0--|

--------------------------------------|--------------------------------------|
--------------------------------------|--------------------------------------|
--------------------------------------|--------------------------------------|
--0--0--0--0--0--0--0--0--0--0--0--0--|--0--0--0--0--0--0--0--0--0--0--0--0--|

------------------------------|------------------------------|
------------------------------|------------------------------|
--7----------------------7----|--9----------------------9----|
-------0--0--0--0--0--0-------|-------0--0--0--0--0--0-------|

--------------------------------|---------------------------|
--------------------------------|---------------------------|
--10----------------------10----|--9-------------9----10----|
--------0--0--0--0--0--0--------|-------0--0--0-------------|

------------------------------|------------------------------|
------------------------------|------------------------------|
--7----------------------7----|--9----------------------9----|
-------0--0--0--0--0--0-------|-------0--0--0--0--0--0-------|

--------------------------------|---------------------------|
--------------------------------|---------------------------|
--10----------------------10----|--9-------------9----10----|
--------0--0--0--0--0--0--------|-------0--0--0-------------|

--------------------------------|-------------------|
--------------------------------|-------------------|
--------------------------------|--5----------------|
--2--2--2--2--2--2--2--2--2--2--|-------------------|

--------------------------------|--------------------|
--------------------------------|--------------------|
--------------------------------|--3--------2--------|
--2--2--2--2--2--2--2--2--2--2--|--------------------|

--------------------------------|-------------------|
--------------------------------|-------------------|
--------------------------------|--5----------------|
--2--2--2--2--2--2--2--2--2--2--|-------------------|

--------------------------------|--------------------|
--------------------------------|--------------------|
--------------------------------|--3--------5--------|
--2--2--2--2--2--2--2--2--2--2--|--------------------|

------------------------------|------------------------------|
------------------------------|------------------------------|
--7----------------------7----|--9----------------------9----|
-------0--0--0--0--0--0-------|-------0--0--0--0--0--0-------|

--------------------------------|---------------------------|
--------------------------------|---------------------------|
--10----------------------10----|--9-------------9----10----|
--------0--0--0--0--0--0--------|-------0--0--0-------------|

------------------------------|------------------------------|
------------------------------|------------------------------|
--7----------------------7----|--9----------------------9----|
-------0--0--0--0--0--0-------|-------0--0--0--0--0--0-------|

--------------------------------|---------------------------|
--------------------------------|---------------------------|
--10----------------------10----|--9-------------9----10----|
--------0--0--0--0--0--0--------|-------0--0--0-------------|

--------------------------------|-------------------------------|
--------------------------------|-------------------------------|
------------2----3----2---------|-------------------------------|
--2----5-------------------5----|--x--x--x--x-x--x---x--x--x-x--|

--------------------------------|-------------------------------|
--------------------------------|-------------------------------|
------------2----3----2---------|-------------------------------|
--2----5-------------------5----|--x--x--x--x-x--x---x--x--x-x--|

--------------------------------|-------------------------------|
--------------------------------|-------------------------------|
------------2----3----2---------|-------------------------------|
--2----5-------------------5----|--x--x--x--x-x--x---x--x--x-x--|

--------------------------------|-------------------------------|
--------------------------------|-------------------------------|
------------2----3----2---------|-------------------------------|
--2----5-------------------5----|--x--x--x--x-x--x---x--x--x-x--|

-------------------|-------------------|-------------------|-------------------|
-------------------|-------------------|-------------------|-------------------|
--2----------------|--0----------------|-------------------|-------------------|
-------------------|-------------------|--4----------------|--4----------------|

-------------------|----------------------|-------------------|
-------------------|----------------------|-------------------|
-------------------|--6------9------12----|-------------------|
--4----------------|----------------------|--4----------------|

-------------------|-------------------|---------------------|
-------------------|-------------------|---------------------|
-------------------|-------------------|---------------------|
--4----------------|--4----------------|--7------6------7----|

----------------------|----------------------|----------------------|
----------------------|----------------------|----------------------|
----------------------|----------------------|----------------------|
--4----4----4--5------|--4----4----4--5------|--4----4----4--5------|

----------------------|----------------------|----------------------|
----------------------|----------------------|----------------------|
--6------9------12----|----------------------|----------------------|
----------------------|--4----4----4--5------|--4----4----4--5------|

----------------------|----------------------|----------------------|
----------------------|----------------------|----------------------|
----------------------|--6------9------12----|-------------7--------|
--4----4----4--5------|----------------------|--0--0----0-----------|
                                                                         
-------------------------|-----------------------|----------------------|
----------4--5--4--------|-----------------------|----------------------|
----5--7-----------7--5--|-------------7----5----|----7----5--5----7----|
-------------------------|--0--0----0------------|----------------------|

----------------------|-------------------------|-----------------------|
----------------------|----------4--5--4--------|-----------------------|
-------------7--------|----5--7-----------7--5--|-------------7----5----|
--0--0----0-----------|-------------------------|--0--0----0------------|
                                                                    
----------------------|------------------------|-------------------|
----------------------|--4---------------4-----|-------------------|
----7----5--5----7----|------------------------|--3----------------|
----------------------|-----2----2----2-----2--|-------------------|
                                                                        
------------------------|---------------------|------------------------|
--4---------------4-----|---------------------|--4---------------4-----|
------------------------|--3------2------0----|------------------------|
-----2----2----2-----2--|---------------------|-----2----2----2-----2--|

-------------------|------------------------|---------------------|
-------------------|--4---------------4-----|---------------------|
--3----------------|------------------------|--3------2------0----|
-------------------|-----2----2----2-----2--|---------------------|
                                                                            
---------------------|--------------------------|--------------------------|
---------------------|--------------------------|--------------------------|
--7------5------3----|--------------------------|--------------------------|
---------------------|--4--4--4--4--4--4--4--4--|--4--4--4--4--4--4--4--4--|
                                                                   
--------------------------|--------------------------|------------|
--------------------------|--------------------------|------------|
--------------------------|--------------------------|------------|
--4--4--4--4--4--4--4--4--|--4--4--4--4--4--4--4--4--|--5----4----|

--------------------------|--------------------------|
--------------------------|--------------------------|
--------------------------|--------------------------|
--4--4--4--4--4--4--4--4--|--4--4--4--4--4--4--4--4--|
                                                                               
--------------------------|------------------------|--------------------------|
--------------------------|------------------------|--------------------------|
--------------------------|------------------------|--------------------------|
--4--4--4--4--4--4--4--4--|--4--4--4--4--5----4----|--4--4--4--4--4--4--4--4--|
                                                      
--------------------------|--------------------------|
--------------------------|--------------------------|
--------------------------|--------------------------|
--4--4--4--4--4--4--4--4--|--4--4--4--4--4--4--4--4--|
                                                                     
--------------------------|--------------------------|--------------|
--------------------------|--------------------------|--------------|
--------------------------|--------------------------|--------------|
--4--4--4--4--4--4--4--4--|--4--4--4--4--4--4--4--4--|--4--4--4--4--|

-------------------|-------------------|--9----------------|--8----------------|
-------------------|-------------------|-------------------|-------------------|
--7----------------|--6----------------|-------------------|-------------------|
-------------------|-------------------|-------------------|-------------------|
                                                                
--9----------------|--11----------------|----------------------|
-------------------|--------------------|----------------------|
-------------------|--------------------|----------------------|
-------------------|--------------------|--4----4----4--5------|
                                                                     
----------------------|----------------------|----------------------|
----------------------|----------------------|----------------------|
----------------------|----------------------|--6------9------12----|
--4----4----4--5------|--4----4----4--5------|----------------------|
                                                                     
----------------------|----------------------|----------------------|
----------------------|----------------------|----------------------|
----------------------|----------------------|----------------------|
--4----4----4--5------|--4----4----4--5------|--4----4----4--5------|
                                                                        
----------------------|----------------------|-------------------------|
----------------------|----------------------|----------4--5--4--------|
--6------9------12----|-------------7--------|----5--7-----------7--5--|
----------------------|--0--0----0-----------|-------------------------|

-----------------------|----------------------|----------------------|
-----------------------|----------------------|----------------------|
-------------7----5----|----7----5--5----7----|-------------7--------|
--0--0----0------------|----------------------|--0--0----0-----------|
                                                                         
-------------------------|-----------------------|----------------------|
----------4--5--4--------|-----------------------|----------------------|
----5--7-----------7--5--|-------------7----5----|----7----5--5----7----|
-------------------------|--0--0----0------------|----------------------|
                                                                      
------------------------|-------------------|------------------------|
--4---------------4-----|-------------------|--4---------------4-----|
------------------------|--3----------------|------------------------|
-----2----2----2-----2--|-------------------|-----2----2----2-----2--|
                                                                   
---------------------|------------------------|-------------------|
---------------------|--4---------------4-----|-------------------|
--3------2------0----|------------------------|--3----------------|
---------------------|-----2----2----2-----2--|-------------------|
                                                                  
------------------------|---------------------|------------------|
--4---------------4-----|---------------------|------------------|
------------------------|--3------2------0----|------------------|
-----2----2----2-----2--|---------------------|------------------|
                                       
------------------|------------------||
------------------|------------------||
------------------|------------------||
------------------|------------------||

            
            
Suggest correction
Creating personal tab
Creating personal tab
You can edit any tab online and save it as your Personal.

You can edit, replace or remove any tab part or add personal notes – all changes will be seen only by you.

Personal tabs can be accessed anytime from any device, even offline.
Learn more »
Give kudos to tab author, rate the tab!
1 2 3 4 5
comments
print report bad tab
guest
You may want to rate the tab now too:
select rating
Wanna post a correction for this tab? Suggest correction