Oops, an error
Loading. Please wait.

Welcome Home bass

version 1
version 1

Whole song

Interactive

4,588 views 9 this week
no commentswrite comment
1 2 3 4 5
x 4
add to favorites
×
Save as Personal and add changes to this tab that will be seen only by you. Learn more ›
×
You can save this tab as Personal to edit and correct it or add notes. All changes will be seen only by you. Learn more »
launch autoscroll
font size
0
reset
guitar tuner
edit
Autoscroll
slow
fast
+/-
esc
set tempo
stop
G||--------------------------|----------------------------------------------|
D||--------------------------|----------------------------------------------|
A||--------------------------|--------------7-8-7-5-7-----------------------|
E||--------------------------|--5-5-5-5-5-5------------5-5-5-5-5-5-8--7--3--|

----------------------------------------------|
----------------------------------------------|
--------------7-8-7-5-7--------------3-----3--|
--5-5-5-5-5-5------------3-3-3-3-3-3----3-----|

----------------------------------------------|
----------------------------------------------|
--------------7-8-7-5-7-----------------------|
--5-5-5-5-5-5------------5-5-5-5-5-5-8--7--3--|

----------------------------------------------|
----------------------------------------------|
--------------7-8-7-5-7--------------3-----3--|
--5-5-5-5-5-5------------3-3-3-3-3-3----3-----|

|-------------------------------------------------|
|*------------------------------------------------|
|*--------------9-10-9-7-9------------------------|
|---7-7-7-7-7-7-------------7-7-7-7-7-7-10--9--5--|

-----------------------------------------------|
-----------------------------------------------|
--------------9-10-9-7-9--------------5-----5--|
--7-7-7-7-7-7-------------7-7-7-7-7-7----5-----|

------------------------------------------------|
------------------------------------------------|
--------------9-10-9-7-9------------------------|
--7-7-7-7-7-7-------------7-7-7-7-7-7-10--9--5--|

-----------------------------------------------|
-----------------------------------------------|
--------------9-10-9-7-9--------------5-----5--|
--7-7-7-7-7-7-------------7-7-7-7-7-7----5-----|

------------------------------------------------|
------------------------------------------------|
--------------9-10-9-7-9------------------------|
--7-7-7-7-7-7-------------7-7-7-7-7-7-10--9--5--|

-----------------------------------------------|-------------------|
-----------------------------------------------|-------------------|
--------------9-10-9-7-9--------------5-----5--|-----4-----4-------|
--7-7-7-7-7-7-------------7-7-7-7-7-7----5-----|--4-----4-----3----|

-------------------|-----------------------------------|--------------------|
-------------------|-----------------------------------|-----5-----6-----6--|
-------------------|-----------5-----------------------|--3-----3-----4-----|
--2--2--2--2--0----|--2--2--2---------2--2--2--2--0----|--------------------|

-------------------|-----------------------------------|--------------------|
-------------------|-----------------------------------|-----5-----6-----6--|
-------------------|-----------5-----------------------|--3-----3-----4-----|
--2--2--2--2--0----|--2--2--2---------2--2--2--2--0----|--------------------|

---------------------||--------------------|
-----7-----8-----8--*||-----7-----8-----8--|
--5-----5-----6-----*||--5-----5-----6-----|
---------------------||--------------------|

------------------------------------|--------------------------------------|
----------------------5-----4-------|-----------------------------------5--|
-------------7-----------7-----5----|-------------7---------------5--------|
--0--0-0-0-0------------------------|--0--0-0-0-0--------5--6--7-----7-----|

------------------------------------|----------------------------------|
----------------------5-----4-------|----------------------------------|
-------------7-----------7-----5----|-------------7------3------5------|
--0--0-0-0-0------------------------|--0--0-0-0-0----------------------|

------------------------------------|--------------------------------------|
----------------------5-----4-------|-----------------------------------5--|
-------------7-----------7-----5----|-------------7---------------5--------|
--0--0-0-0-0------------------------|--0--0-0-0-0--------5--6--7-----7-----|

------------------------------------|----------------------------------|
----------------------5-----4-------|----------------------------------|
-------------7-----------7-----5----|-------------7------3------5------|
--0--0-0-0-0------------------------|--0--0-0-0-0----------------------|

------------------------------------------------|
------------------------------------------------|
--------------9-10-9-7-9------------------------|
--7-7-7-7-7-7-------------7-7-7-7-7-7-10--9--5--|

-----------------------------------------------|
-----------------------------------------------|
--------------9-10-9-7-9--------------5-----5--|
--7-7-7-7-7-7-------------7-7-7-7-7-7----5-----|

------------------------------------------------|
------------------------------------------------|
--------------9-10-9-7-9------------------------|
--7-7-7-7-7-7-------------7-7-7-7-7-7-10--9--5--|

-----------------------------------------------|
-----------------------------------------------|
--------------9-10-9-7-9--------------5-----5--|
--7-7-7-7-7-7-------------7-7-7-7-7-7----5-----|

------------------------------------------------|
------------------------------------------------|
--------------9-10-9-7-9------------------------|
--7-7-7-7-7-7-------------7-7-7-7-7-7-10--9--5--|

-----------------------------------------------|-------------------|
-----------------------------------------------|-------------------|
--------------9-10-9-7-9--------------5-----5--|-----4-----4-------|
--7-7-7-7-7-7-------------7-7-7-7-7-7----5-----|--4-----4-----3----|

-------------------|-----------------------------------|--------------------|
-------------------|-----------------------------------|-----5-----6-----6--|
-------------------|-----------5-----------------------|--3-----3-----4-----|
--2--2--2--2--0----|--2--2--2---------2--2--2--2--0----|--------------------|

-------------------|-----------------------------------|--------------------|
-------------------|-----------------------------------|-----5-----6-----6--|
-------------------|-----------5-----------------------|--3-----3-----4-----|
--2--2--2--2--0----|--2--2--2---------2--2--2--2--0----|--------------------|

--------------------|------------------------------------|
-----7-----8-----8--|----------------------5-----4-------|
--5-----5-----6-----|-------------7-----------7-----5----|
--------------------|--0--0-0-0-0------------------------|

--------------------------------------|------------------------------------|
-----------------------------------5--|----------------------5-----4-------|
-------------7---------------5--------|-------------7-----------7-----5----|
--0--0-0-0-0--------5--6--7-----7-----|--0--0-0-0-0------------------------|

----------------------------------|------------------------------------|
----------------------------------|----------------------5-----4-------|
-------------7------3------5------|-------------7-----------7-----5----|
--0--0-0-0-0----------------------|--0--0-0-0-0------------------------|

--------------------------------------|------------------------------------|
-----------------------------------5--|----------------------5-----4-------|
-------------7---------------5--------|-------------7-----------7-----5----|
--0--0-0-0-0--------5--6--7-----7-----|--0--0-0-0-0------------------------|

----------------------------------|------------------------------------|
----------------------------------|----------------------5-----4-------|
-------------7------3------5------|-------------7-----------7-----5----|
--0--0-0-0-0----------------------|--0--0-0-0-0------------------------|

--------------------------------------|------------------------------------|
-----------------------------------5--|----------------------5-----4-------|
-------------7---------------5--------|-------------7-----------7-----5----|
--0--0-0-0-0--------5--6--7-----7-----|--0--0-0-0-0------------------------|

----------------------------------|-------------------|------------------|
----------------------------------|-------------------|------------------|
-------------7--------------------|-------------------|------------------|
--0--0-0-0-0--------3------2------|--0----------------|------------------|

------------------|--------------------------|--------------------------|
------------------|--------------------------|--------------4--2--4--2--|
------------------|--5--2--4--2--5--2--4--2--|--2--2--2--2--------------|
------------------|--------------------------|--------------------------|

--------------------------|--------------------------|
--------------5--2--5--2--|--------------4--2--4--2--|
--2--2--2--2--------------|--2--2--2--2--------------|
--------------------------|--------------------------|

--------------------------|--------------------------|
--------------------------|--------------------------|
--5--2--4--2--5--2--4--2--|--------------------------|
--------------------------|--4--4--4--4--4--4--4--4--|

--------------------------|--------------------------|
--------------------------|--------------------------|
--------------------------|--------------------------|
--4--4--4--4--4--4--4--4--|--4--4--4--4--4--4--4--4--|

--------------------------|--------------------------|
--------------------------|--------------------------|
--------------------------|--7--7--7--7--7--7--7--7--|
--4--4--4--4--4--4--4--4--|--------------------------|

--------------------------|--------------------------|
--------------------------|--------------------------|
--7--7--7--7--7--7--7--7--|--7--7--7--7--7--7--7--7--|
--------------------------|--------------------------|

--------------------------|----------------------------------|
--------------------------|----------------------------------|
--7--7--7--7--7--7--7--7--|--11--11--11--11--11--11--11--11--|
--------------------------|----------------------------------|

----------------------------------|----------------------------------|
----------------------------------|----------------------------------|
--11--11--11--11--11--11--11--11--|--11--11--11--11--11--11--11--11--|
----------------------------------|----------------------------------|

----------------------------------|--------------------------|
----------------------------------|--------------------------|
--11--11--11--11--11--11--11--11--|--9--9--9--9--9--9--9--9--|
----------------------------------|--------------------------|

--------------------------|--------------------------|
--------------------------|--------------------------|
--9--9--9--9--9--9--9--9--|--9--9--9--9--9--9--9--9--|
--------------------------|--------------------------|

--------------------------|------------------------|------------------------|
--------------------------|------------------------|------------------------|
--9--9--9--9--9--9--9--9--|------------------------|------------------------|
--------------------------|--2----2----2--2--2--2--|--2----2----2--2--2--2--|

------------------------|------------------------|------------------------|
------------------------|------------------------|------------------------|
------------------------|------------------------|------------------------|
--2----2----2--2--2--2--|--2----2----2--2--2--2--|--3----3----3--3--3--3--|

------------------------|------------------------|------------------------|
------------------------|------------------------|------------------------|
------------------------|------------------------|------------------------|
--3----3----3--3--3--3--|--3----3----3--3--3--3--|--3----3----3--3--3--3--|

------------------------|------------------------|------------------------|
------------------------|------------------------|------------------------|
------------------------|------------------------|------------------------|
--2----2----2--2--2--2--|--2----2----2--2--2--2--|--2----2----2--2--2--2--|

------------------------|--------------------------|--------------------------|
------------------------|--------------------------|--------------------------|
------------------------|--------------------------|--------------------------|
--2----2----2--2--2--2--|--1--1--1--1--1--1--1--1--|--1--1--1--1--1--1--1--1--|

--------------------------|--------------------------|
--------------------------|--------------------------|
--------------------------|--------------------------|
--1--1--1--1--1--1--1--1--|--1--1--1--1--1--1--1--1--|

--------------------------|--------------------------|
--------------------------|--------------------------|
--------------------------|--------------------------|
--4--4--4--4--4--4--4--4--|--4--4--4--4--4--4--4--4--|

--------------------------|--------------------------|
--------------------------|--------------------------|
--------------------------|--------------------------|
--4--4--4--4--4--4--4--4--|--4--4--4--4--4--4--4--4--|

--------------------------|--------------------------|
--------------------------|--------------------------|
--------------------------|--------------------------|
--1--1--1--1--1--1--1--1--|--1--1--1--1--1--1--1--1--|

--------------------------|--------------------------|-----------------------|
--------------------------|--------------------------|-----------------------|
--------------------------|--------------------------|--2--------2--2--2--2--|
--1--1--1--1--1--1--1--1--|--1--1--1--1--1--1--1--1--|-----------------------|

-----------------------|-----------------------|--------------------|
-----------------------|-----------------------|--------------------|
--2--------2--2--2--2--|--2--------2--2--2--2--|--2--------2--------|
-----------------------|-----------------------|--------------------|

-----------------------|-----------------------|-----------------------|
-----------------------|-----------------------|-----------------------|
--4--------4--4--4--4--|--4--------4--4--4--4--|--4--------4--4--4--4--|
-----------------------|-----------------------|-----------------------|

--------------------|--------------------------|--------------------------|
--6-----------------|--------------------------|--------------------------|
-----------4--------|--6--6--6--6--6--6--6--6--|--6--6--6--6--6--6--6--6--|
--------------------|--------------------------|--------------------------|

--------------------------|--------------------|--------------------------|
--------------------------|--------------------|--------------------------|
--6--6--6--6--6--6--6--6--|--6--------6--------|--6--6--6--6--6--6--6--6--|
--------------------------|--------------------|--------------------------|

--------------------------|--------------------------|--------------------|
--------------------------|--------------------------|--------------------|
--6--6--6--6--6--6--6--6--|--6--6--6--6--6--6--6--6--|--6--------6--------|
--------------------------|--------------------------|--------------------|

--------------------------|--------------------------|
--------------------------|--------------------------|
--------------7--8--7--0--|--7--8--7--0--7--8--7--0--|
--0--0--0--0--------------|--------------------------|

--------------------------|---------------------------|
--------------------------|---------------------------|
--------------7--8--7--0--|--12--0--5--0--7--0--5--0--|
--0--0--0--0--------------|---------------------------|

--------------------------|--------------------------|
--------------------------|--------------------------|
--------------7--8--7--0--|--7--8--7--0--7--8--7--0--|
--0--0--0--0--------------|--------------------------|

--------------------------|---------------------------|
--------------------------|---------------------------|
--------------7--8--7--0--|--12--0--5--0--7--0--5--0--|
--0--0--0--0--------------|---------------------------|

---------------------------|--------------------|--------------------------|
---------------------------|--------------------|--------------4--2--4--2--|
--12--0--5--0--7--0--5--0--|--7/---x------------|--2--2--2--2--------------|
---------------------------|--------------------|--------------------------|

--------------------------|--------------------------|
--------------5--2--5--2--|--------------4--2--4--2--|
--2--2--2--2--------------|--2--2--2--2--------------|
--------------------------|--------------------------|

--------------------------|--------------------------|
--------------------------|--------------4--2--4--2--|
--5--2--4--2--5--2--4--2--|--2--2--2--2--------------|
--------------------------|--------------------------|

--------------------------|--------------------------|
--------------5--2--5--2--|--------------4--2--4--2--|
--2--2--2--2--------------|--2--2--2--2--------------|
--------------------------|--------------------------|

--------------------------|--------------------------|
--------------------------|--------------------------|
--5--2--4--2--5--2--4--2--|--------------------------|
--------------------------|--4--4--4--4--4--4--4--4--|

--------------------------|--------------------------|
--------------------------|--------------------------|
--6--6--6--6--6--6--6--6--|--5--5--5--5--5--5--5--5--|
--------------------------|--------------------------|

--------------------------|--------------------------|
--------------------------|--------------------------|
--5--5--------------------|--------------------------|
--------4--6--7--4--6--7--|--4--4--4--4--4--4--4--4--|

--------------------------|--------------------------|
--------------------------|--------------------------|
--6--6--6--6--6--6--6--6--|--5--5--5--5--5--5--5--5--|
--------------------------|--------------------------|

--------------------------|--------------------------|
--------------------------|--------------------------|
--5--5--------------------|--------------------------|
--------4--6--7--4--6--7--|--1--1--1--1--1--1--1--1--|

--------------------------|--------------------------|
--------------------------|--------------------------|
--3--3--3--3--3--3--3--3--|--2--2--2--2--2--2--2--2--|
--------------------------|--------------------------|

--------------------------|--------------------------|
--------------------------|--------------------------|
--2--2--------------------|--------------------------|
--------1--3--4--1--3--4--|--3--3--3--3--3--3--3--3--|

--------------------------|--------------------------|
--------------------------|--------------------------|
--5--5--5--5--5--5--5--5--|--4--4--4--4--4--4--4--4--|
--------------------------|--------------------------|

--------------------------|--------------------------|
--------------------------|--------------------------|
--4--4--------------------|--------------7--8--7--0--|
--------3--5--6--3--5--6--|--0--0--0--0--------------|

--------------------------|--------------------------|
--------------------------|--------------------------|
--7--8--7--0--7--8--7--0--|--------------7--8--7--0--|
--------------------------|--0--0--0--0--------------|

---------------------------|--------------------------|
---------------------------|--------------------------|
--12--0--5--0--7--0--5--0--|--------------7--8--7--0--|
---------------------------|--0--0--0--0--------------|

--------------------------|--------------------------|
--------------------------|--------------------------|
--7--8--7--0--7--8--7--0--|--------------7--8--7--0--|
--------------------------|--0--0--0--0--------------|

---------------------------|---------------------------|
---------------------------|--12--0--5--0--7--0--5--0--|
--12--0--5--0--7--0--5--0--|---------------------------|
---------------------------|---------------------------|

---------------------------|-------------------||
---------------------------|-------------------||
--12--0--5--0--7--0--5--0--|-------------------||
---------------------------|--0----------------||

            
            
Suggest correction
Creating personal tab
Creating personal tab
You can edit any tab online and save it as your Personal.

You can edit, replace or remove any tab part or add personal notes – all changes will be seen only by you.

Personal tabs can be accessed anytime from any device, even offline.
Learn more »
comments
print report bad tab
guest
You may want to rate the tab now too:
select rating
Wanna post a correction for this tab? Suggest correction