Oops, an error
Loading. Please wait.

Brixton Prison bass

1,422 views 3 this week
1 commentread comment
1 2 3 4 5
3 more votes to show rating
add to favorites
×
Save as Personal and add changes to this tab that will be seen only by you. Learn more ›
×
You can save this tab as Personal to edit and correct it or add notes. All changes will be seen only by you. Learn more »
launch autoscroll
font size
0
reset
guitar tuner
edit
Autoscroll
slow
fast
+/-
esc
set tempo
stop
---------------------------------------------------------------------------
	    Brixton Prison - King Tubby & Scientist
---------------------------------------------------------------------------

Tabbed By : Robert Sizemore
e-mail: rks8207@uncw.edu
Artists: King Tubby & Scientist
Album: Universal Dub
Song: Brixton Prison - Zola Zola
Tuning: Standard

Surprised that there isn't much dub on Ultimate Guitar!
This song is easy and fun to play, the only difficult thing is knowing whether to play 
part twice or three times!

This tab reads from top to bottom, if you have to repeat a part it'll be written in parenthesis.


Intro:

G|------------------------------|
D|------------------------------| x 3
A|--5-5-5-5-5-5-5-5-5-5--3--5---|
E|------------------------------|

G|----------|
D|----------| x 1
A|--5-------|
E|----------|

(Drum Fill)

Verse 1:

G|-----------------------------|
D|-----------------------------| x 3
A|--5-5-5-5-5-5-5-5-5-5-----5--|
E|-----------------------5-----|

G|-----------------------------|
D|-----------------------------| x 3
A|-----------------------------|
E|--5-5-5-5-5-5-5-5-5-5--0--5--|

(Verse 1)

Verse 2:

G|------------------------------|
D|------------------------------|
A|--7-7-7-7-7-7-7-7-7-7-----7---| x 2
E|-----------------------7------|

G|------------------------------|
D|------------------------------|
A|--5-5-5-5-5-5-5-5-5-5-----5---| x 2
E|-----------------------5------|

Transition 1:

G|------------------------------|
D|------------------------------|
A|------------------------------| x 3
E|--5-5-5-5-5-5-5-5-5-5--0--5---|

(Verse 1)

(Verse 1)

(Verse 2)

Transition 2:

G|------------------------------|
D|------------------------------|
A|------------------------------| x 2
E|--5-5-5-5-5-5-5-5-5-5--0--5---|

Bass and Drum solo:

G|------------------------------|
D|------------------------------|
A|--5-5-5-5-5-5-5-5-5-5-----5---| x 2
E|-----------------------5------|

G|------------------------------|
D|------------------------------|
A|------------------------------| x 2
E|--5-5-5-5-5-5-5-5-5-5--0--5---|

(Bass and Drum solo)


G|------------------------------|
D|------------------------------|
A|--5-5-5-5-5-5-5-5-5-5-----5---| x 3
E|-----------------------5------|

G|------------------------------|
D|------------------------------|
A|------------------------------| x 3
E|--5-5-5-5-5-5-5-5-5-5--0--5---|

G|------------------------------|
D|------------------------------|
A|--5-5-5-5-5-5-5-5-5-5-----5---| x 3
E|-----------------------5------|

Fade out:

G|------------------------------|
D|------------------------------|
A|------------------------------| x 3
E|--5-5-5-5-5-5-5-5-5-5--0--5---|


| /  slide up
| \  slide down
| h  hammer-on
| p  pull-off
| ~  vibrato
| +  harmonic
| x  Mute note
===============================================================================

            
            
Suggest correction
Creating personal tab
Creating personal tab
You can edit any tab online and save it as your Personal.

You can edit, replace or remove any tab part or add personal notes – all changes will be seen only by you.

Personal tabs can be accessed anytime from any device, even offline.
Learn more »
Give kudos to tab author, rate the tab!
1 2 3 4 5
comments
print report bad tab
1 comment total.
0 reply
arn01 10 Apr 05, 2013 07:17 AM

Brilliant! We need more dub on Ultimate Guitar!

guest
You may want to rate the tab now too:
select rating
Wanna post a correction for this tab? Suggest correction