Oops, an error
Loading. Please wait.

Do You Like It tab

version 2
version 2

Whole song

Interactive

5,590 views 12 this week
2 commentsread comments
1 2 3 4 5
1 last vote to show rating
add to favorites
×
Save as Personal and add changes to this tab that will be seen only by you. Learn more ›
×
You can save this tab as Personal to edit and correct it or add notes. All changes will be seen only by you. Learn more »
launch autoscroll
font size
0
reset
how to read this tab
guitar tuner
backing track
0:00
0:00
edit
Autoscroll
slow
fast
+/-
esc
set tempo
stop
Author
This is my first tab ever so don't be to hard on me!
I know that not everyting is a riff, but it's easier to read this tab.

Kingdome Come - Do You Like It
Tuning - Standard

Riff 1:              (Play 2 times)
E ----------------------------------------------------------------------*
B ----------------------------------------------------------------------*
G -5-------------5-----4-------------4-----5-------------5--7--5--4--2--*
D -5-------------5-----5-------------5-----5-------------5--7--5--5--2--*
A ---(0)-(0)-(0)---(0)---(0)-(0)-(0)---(0)---(0)-(0)-(0)----------------*
E ----------------------------------------------------------------------*

(0) = the A-string has to be Palm Muted
* means, after the last tab(G-2/D-2) you'll need to go to the begining(G-5/D-5)

Riff 2:              (Play 2 times)
E ----------------------------------------------------------------------*
B --6----5----6----8--6--5--4-------------------------------------------*
G --5----5----5----7--5--5--5-------------------------------------------*
D ----------------------------------------------------------------------*
A ----------------------------------------------------------------------*
E ----------------------------------------------------------------------*

* means, after the last tab(B-4/G-5) you'll need to go to the begining(B-6/G-5)


Riff 1 
Riff 2
Riff 1

Riff 3:              (play 3 times)
E ----------------------------------------------------------------------*
B ----------------------------------------------------------------------*
G ----------------------------------------------------------------------*
D -3-------------5-------------7----------------------------------------*
A -3--0-2-0-2s3--5--0-4-0-4s5--7--0-2-0-3-0-2-0-7-0-5-03s2-0------------*
E -1-------------3-------------5----------------------------------------*

* means, after the last tab (A-0) you'll need te go to the begining (d-3/A-3/E-1)

Riff 3: (the 4th time)
E -----------------------------------------------------|
B -----------------------------------------------------|
G -----------------------------------------------------|
D -3-------------5-------------7-----------5---5---5---|
A -3--0-2-0-2s3--5--0-4-0-4s5--7----------5-7-5-7-5-7--|
E -1-------------3-------------5---0-5-6-7-------------|

Solo: (Still to come) My BAD!!!!!

During the solo just play Riff 1 - 4 times.

Riff 5:
E -----------------------------------------------------|
B -----------------------------------------------------|
G -----------------------------------------------------|
D -3-------------5-------------7-----------------------|
A -3-------------5-------------7-----------------------|
E -1-------------3-------------5-----------------------|

Riff 6:
E ----------------------------------------------------------------------|
B ----------------------------------------------------------------------|
G ----------------------------------------------------------------------|
D -3-------------5-------------2---------5---5---5---5---5---5---5---5--|
A -3-------------5-------------2--------5-7-5-7-5-7-5-7-5-7-5-7-5-7-5-7-|
E -1-------------3---------------0-5-6-7--------------------------------|

Riff 1 
Riff 2 
Riff 1 
Riff 3 

after 3th riff

E -------------------------|
B -------------------------|
G -------------------------|
D ---5---5---5-----------5-|
A --5-7-5-7-5-7---------5--|
E ---------------0-5-6-7---| 

ENJOY
Please leave a comment, so I can improve my next tabs. Thanks

            
            
Suggest correction
Creating personal tab
Creating personal tab
You can edit any tab online and save it as your Personal.

You can edit, replace or remove any tab part or add personal notes – all changes will be seen only by you.

Personal tabs can be accessed anytime from any device, even offline.
Learn more »
Give kudos to tab author, rate the tab!
1 2 3 4 5
comments
print report bad tab
2 comments total.
0 reply
Ratt n' Roll 205 Jan 27, 2009 09:45 AM

Nice job-hope you can figure out the solos, 5 stars.

0 reply
sandman-105 90 Sep 07, 2009 08:36 AM

this is a great tab considering its your first and really in general its vary good and don't worry about the solo its an 80's solo so its easy enough to just wing it. 5 stars

guest
You may want to rate the tab now too:
select rating
Wanna post a correction for this tab? Suggest correction