Oops, an error
Loading. Please wait.

La Serena tab

version 1
version 1

Whole song

Interactive

599 views 1 this week
2 commentsread comments
1 2 3 4 5
3 more votes to show rating
add to favorites
×
Save as Personal and add changes to this tab that will be seen only by you. Learn more ›
×
You can save this tab as Personal to edit and correct it or add notes. All changes will be seen only by you. Learn more »
launch autoscroll
font size
0
reset
how to read this tab
guitar tuner
edit
Autoscroll
slow
fast
+/-
esc
set tempo
stop
                       La Serena - Kingdoms 

Guitar 1



      E  E  E  E  E  E  E  E     E  E  E  E  E  E  E  E   
D#||--0--0--0--0--0--0--0--0--|--0--0--0--0--0--0--0--0--|
A#||--6--6--6--6--6--6--6--6--|--6--6--6--6--6--6--6--6--|
F#||--7--7--7--7--7--7--7--7--|--7--7--7--7--7--7--7--7--|
C#||--0--0--0--0--0--0--0--0--|--0--0--0--0--0--0--0--0--|
G#||--------------------------|--------------------------|
C#||--------------------------|--------------------------|


   E   E   E   E   E   E   E   E      E   E   E   E   E   E   E   E   
---8---8---8---8---8---8---8---8--|---8---8---8---8---8---8---8---8--|
---8---8---8---8---8---8---8---8--|---8---8---8---8---8---8---8---8--|
--10--10--10--10--10--10--10--10--|--10--10--10--10--10--10--10--10--|
----------------------------------|----------------------------------|
----------------------------------|----------------------------------|
----------------------------------|----------------------------------|


   E   E   E   E   E   E   E   E      E   E   E   E   E   E   E   E   
--12--12--12--12--12--12--12--12--|--12--12--12--12--12--12--12--12--|
--10--10--10--10--10--10--10--10--|--10--10--10--10--10--10--10--10--|
--12--12--12--12--12--12--12--12--|--12--12--12--12--12--12--12--12--|
----------------------------------|----------------------------------|
----------------------------------|----------------------------------|
----------------------------------|----------------------------------|


                                          PM PM PM                
   E    E   E    E    E   E    E    E     S  S  E  H.             
--13p--12------------------------------|-------------------------|
-----------13h--15p--13----------------|-------------------------|
-------------------------12h--14p--12--|-----------9b------------|
---------------------------------------|--0--0--0----------------|
---------------------------------------|--0--0--0----------------|
---------------------------------------|--0--0--0----------------|


  E  E  E  E  E  E  E  E     E  E  E  E  E  E  E  E   
--0--L--L--0--L--L--0--L--|--L--0--L--L--0--L--L--0--|
-----6--L--L--6--L--L--6--|--L--L--6--L--L--6--L--L--|
--------7--L--L--7--L--L--|--7--L--L--7--L--L--7--L--|
--------------------------|--------------------------|
--------------------------|--------------------------|
--------------------------|--------------------------|


  E  E   E  E  E   E  E  E      E  E  E   E  E  E   E  E   
--8--L---L--8--L---L--8--L--|---L--8--L---L--8--L---L--8--|
-----8---L--L--8---L--L--8--|---L--L--8---L--L--8---L--L--|
--------10--L--L--10--L--L--|--10--L--L--10--L--L--10--L--|
----------------------------|-----------------------------|
----------------------------|-----------------------------|
----------------------------|-----------------------------|


   E   E   E   E   E   E   E   E      E   E   E   E   E   E   E   E   
--12---L---L--12---L---L--12---L--|---L--12---L---L--12---L---L--12--|
------10---L---L--10---L---L--10--|---L---L--10---L---L--10---L---L--|
----------12---L---L--12---L---L--|--12---L---L--12---L---L--12---L--|
----------------------------------|----------------------------------|
----------------------------------|----------------------------------|
----------------------------------|----------------------------------|


                                          PM PM PM                
   E    E   E    E    E   E    E    E     S  S  E  H.             
--13p--12------------------------------|-------------------------|
-----------13h--15p--13----------------|-------------------------|
-------------------------12h--14p--12--|-----------9b------------|
---------------------------------------|--0--0--0----------------|
---------------------------------------|--0--0--0----------------|
---------------------------------------|--0--0--0----------------|


  E  E  E  E  E  E  E  E     E  E  E  E  E  E  E  E   
--0--L--L--0--L--L--0--L--|--L--0--L--L--0--L--L--0--|
-----6--L--L--6--L--L--6--|--L--L--6--L--L--6--L--L--|
--------7--L--L--7--L--L--|--7--L--L--7--L--L--7--L--|
--------------------------|--------------------------|
--------------------------|--------------------------|
--------------------------|--------------------------|


  E  E   E  E  E   E  E  E      E  E  E   E  E  E   E  E   
--8--L---L--8--L---L--8--L--|---L--8--L---L--8--L---L--8--|
-----8---L--L--8---L--L--8--|---L--L--8---L--L--8---L--L--|
--------10--L--L--10--L--L--|--10--L--L--10--L--L--10--L--|
----------------------------|-----------------------------|
----------------------------|-----------------------------|
----------------------------|-----------------------------|


   E   E   E   E   E   E   E   E      E   E   E   E   E   E   E   E   
--12---L---L--12---L---L--12---L--|---L--12---L---L--12---L---L--12--|
------10---L---L--10---L---L--10--|---L---L--10---L---L--10---L---L--|
----------12---L---L--12---L---L--|--12---L---L--12---L---L--12---L--|
----------------------------------|----------------------------------|
----------------------------------|----------------------------------|
----------------------------------|----------------------------------|


                                          PM PM PM                
   E    E   E    E    E   E    E    E     S  S  E  H.             
--13p--12------------------------------|-------------------------|
-----------13h--15p--13----------------|-------------------------|
-------------------------12h--14p--12--|-----------9b------------|
---------------------------------------|--0--0--0----------------|
---------------------------------------|--0--0--0----------------|
---------------------------------------|--0--0--0----------------|


                         PM PM PM       PM                
  E   E   E  E    E   E  S  S  E     E  E   H.            
----------------------------------|---------0------------|
----------------------------------|---------0------------|
-------------7s--10s--9-----------|---------9------------|
-------------------------0--0--0--|-----0--10------------|
-------------5s---8s--7--0--0--0--|-----0---8------------|
--8p--5p--0--------------0--0--0--|-----0----------------|


                           PM PM PM       PM    PM                  
  E   E   E   E    E    E  S  S  E     E  E  E  E   E   E   E   E   
------------------------------------|------------------------------|
------------------------------------|------------------------------|
-------------10s--14s--12-----------|--------------14--14--14--14--|
---------------------------0--0--0--|-----0-----0---x---x---x---x--|
--------------8s--12s--10--0--0--0--|-----0-----0--12--12--12--12--|
--8p--5p--0----------------0--0--0--|-----0-----0------------------|


                                               PM              
  E  E    E    E   E    E  E   E      E   Q    E  E  E  E  E   
-----------------------------------|------0-------------------|
-----------------------------------|------0-------------------|
-----------------------------------|------9-------------------|
------------------15s--12----------|-----10----0--3--3--3--3--|
-----0h--12h--13-----------0h--7h--|--8---8----0--1--1--1--1--|
-----------------------------------|-----------0--1--1--1--1--|


                           PM PM PM       PM    PM                  
  E   E   E   E    E    E  S  S  E     E  E  E  E   E   E   E   E   
------------------------------------|------------------------------|
------------------------------------|------------------------------|
-------------10s--14s--12-----------|--------------14--14--14--14--|
---------------------------0--0--0--|-----0-----0---x---x---x---x--|
--------------8s--12s--10--0--0--0--|-----0-----0--12--12--12--12--|
--8p--5p--0----------------0--0--0--|-----0-----0------------------|


                                               PM              
  E  E    E    E   E    E  E   E      E   Q    E  E  E  E  E   
-----------------------------------|------0-------------------|
-----------------------------------|------0-------------------|
-----------------------------------|------9-------------------|
------------------15s--12----------|-----10----0--3--3--3--3--|
-----0h--12h--13-----------0h--7h--|--8---8----0--1--1--1--1--|
-----------------------------------|-----------0--1--1--1--1--|


                           PM PM PM       PM    PM                  
  E   E   E   E    E    E  S  S  E     E  E  E  E   E   E   E   E   
------------------------------------|------------------------------|
------------------------------------|------------------------------|
-------------10s--14s--12-----------|--------------14--14--14--14--|
---------------------------0--0--0--|-----0-----0---x---x---x---x--|
--------------8s--12s--10--0--0--0--|-----0-----0--12--12--12--12--|
--8p--5p--0----------------0--0--0--|-----0-----0------------------|


                                               PM              
  E  E    E    E   E    E  E   E      E   Q    E  E  E  E  E   
-----------------------------------|------0-------------------|
-----------------------------------|------0-------------------|
-----------------------------------|------9-------------------|
------------------15s--12----------|-----10----0--3--3--3--3--|
-----0h--12h--13-----------0h--7h--|--8---8----0--1--1--1--1--|
-----------------------------------|-----------0--1--1--1--1--|


                           PM PM PM       PM    PM                  
  E   E   E   E    E    E  S  S  E     E  E  E  E   E   E   E   E   
------------------------------------|------------------------------|
------------------------------------|------------------------------|
-------------10s--14s--12-----------|--------------14--14--14--14--|
---------------------------0--0--0--|-----0-----0---x---x---x---x--|
--------------8s--12s--10--0--0--0--|-----0-----0--12--12--12--12--|
--8p--5p--0----------------0--0--0--|-----0-----0------------------|


                                               PM                  
  E  E    E    E   E    E  E   E      E   Q    E   E   E   E   E   
-----------------------------------|------0-----------------------|
-----------------------------------|------0-----------------------|
-----------------------------------|------9-------13--13--13--13--|
------------------15s--12----------|-----10----0---x---x---x---x--|
-----0h--12h--13-----------0h--7h--|--8---8----0--11--11--11--11--|
-----------------------------------|-----------0------------------|


   E   E   E   E   E   E   E   E      E   E   E   E   E   E   E   E   
----------------------------------|----------------------------------|
----------------------------------|----------------------------------|
--14--14--14--14--14--14--14--14--|--16--16--16--16--17--17--17--17--|
---x---x---x---x---x---x---x---x--|---x---x---x---x---x---x---x---x--|
--12--12--12--12--12--12--12--12--|--14--14--14--14--15--15--15--15--|
----------------------------------|----------------------------------|


   E   E   E   E   E   E   E   E   E   E   E   E   
--------------------------------------------------|
--------------------------------------------------|
--13--13--13--13--14--14--14--14--16--16--16--16--|
---x---x---x---x---x---x---x---x---x---x---x---x--|
--11--11--11--11--12--12--12--12--14--14--14--14--|
--------------------------------------------------|


   E   E   E   E   E   E   E   E      E   E   E   E   E   E   E   E   
----------------------------------|----------------------------------|
----------------------------------|----------------------------------|
--14--14--14--14--14--14--14--14--|--16--16--16--16--17--17--17--17--|
---x---x---x---x---x---x---x---x--|---x---x---x---x---x---x---x---x--|
--12--12--12--12--12--12--12--12--|--14--14--14--14--15--15--15--15--|
----------------------------------|----------------------------------|


   E   E   E   E   E   E   E   E      E   E   E   E   E   E   E   E   
----------------------------------|----------------------------------|
----------------------------------|----------------------------------|
--13--13--13--13--14--14--14--14--|--16--16--16--16--17--17--17--17--|
---x---x---x---x---x---x---x---x--|---x---x---x---x---x---x---x---x--|
--11--11--11--11--12--12--12--12--|--14--14--14--14--15--15--15--15--|
----------------------------------|----------------------------------|


   |---3---|   |---3---|   |---3---|   |---3---|   
   E   E   E   E   E   E   E   E   E   E   E   E   
----------------------12--17--12------------------|
------------------13--------------13--------------|
--------------14----------------------14----------|
----------14------------------------------14------|
--12--15--------------------------------------15--|
--------------------------------------------------|


   |---3---|   |---3---|   |---3---|   |---3---|   
   E   E   E   E   E   E   E   E   E   E   E   E   
----------------------12--17--12------------------|
------------------13--------------13--------------|
--------------14----------------------14----------|
----------14------------------------------14------|
--12--15--------------------------------------15--|
--------------------------------------------------|


   |---3---|   |---3---|   |---3---|   |---3---|      |---3---|   |---3---|   
   E   E   E   E   E   E   E   E   E   E   E   E      E   E   E   E   E   E   
--------------------------------------------------|--------------------------|
--------------------------------------------------|--------------------------|
------------------13--16--19--16--13--------------|------------------13--16--|
----------12--15----------------------15--12------|----------12--15----------|
--11--14--------------------------------------14--|--11--14------------------|
--------------------------------------------------|--------------------------|


   |---3---|   |---3---|   |---3---|   |---3---|   
   E   E   E   E   E   E   E   E   E   E   E   E   
----------------------12--17--12------------------|
------------------13--------------13--------------|
--------------14----------------------14----------|
----------14------------------------------14------|
--12--15--------------------------------------15--|
--------------------------------------------------|


   |---3---|   |---3---|   |---3---|   |---3---|   
   E   E   E   E   E   E   E   E   E   E   E   E   
----------------------12--17--12------------------|
------------------13--------------13--------------|
--------------14----------------------14----------|
----------14------------------------------14------|
--12--15--------------------------------------15--|
--------------------------------------------------|


   |---3---|   |---3---|   |---3---|   |---3---|   
   E   E   E   E   E   E   E   E   E   E   E   E   
--------------------------------------------------|
--------------------------------------------------|
------------------13--16--19--16--13--------------|
----------12--15----------------------15--12------|
--11--14--------------------------------------14--|
--------------------------------------------------|


                                                                  PM       PM  
   |---3---|   |---3---|   |---3---|   |---3---|                               
   E   E   E   E   E   E   E   E   E   E   E   E     Q    E    E  E  E  E  E   
--------------------------------------------------|---------------------------|
--------------------------------------------------|---------------------------|
------------------13--16--19--16--13--------------|---------------------------|
----------12--15----------------------15--12------|--0---------------0--------|
--11--14--------------------------------------14--|--0---------------0--------|
--------------------------------------------------|--0----1s--12--0--0-----0--|


  PM                                                  
  E  E  E  E  E  E  E  E     E  E  E  E  E  E  E  E   
--------------------------|--0--0--0--0--0--0--0--0--|
--------------6-----------|--0--0--0--0--0--0--0--0--|
-----0--2--5-----5--2--0--|--5--5--5--5--5--5--5--5--|
--------------------------|--7--7--7--7--7--7--7--7--|
--0-----------------------|--0--0--0--0--0--0--0--0--|
--------------------------|--------------------------|


                                          PM       PM  
  E  E  E  E  E  E  E  E     Q    E    E  E  E  E  E   
--0--0--0--0--0--0--0--0--|---------------------------|
--0--0--0--0--0--0--0--0--|---------------------------|
--5--5--5--5--5--5--5--5--|---------------------------|
--7--7--7--7--7--7--7--7--|--0---------------0--------|
--0--0--0--0--0--0--0--0--|--0---------------0--------|
--------------------------|--0----1s--12--0--0-----0--|


  PM                                                    
  E  E   E  E  E  E  E   E     E  E  E  E  E  E  E  E   
----------------------------|--------------------0--L--|
----------------------------|-----------1--L--L--L--L--|
---------------7------------|--4--L--L--L--L--L--L--L--|
------------7-----7---------|--------------------------|
--0--5h--8-----------8p--7--|--------------------------|
----------------------------|--------------------------|


                                          PM       PM  
  E  E  E  E  E  E  E  E     Q    E    E  E  E  E  E   
--L--L--L--L--L--L--L--L--|---------------------------|
--L--1--L--L--L--L--1--L--|---------------------------|
--L--L--L--L--4--L--L--L--|---------------------------|
--------------------------|--0---------------0--------|
--------------------------|--0---------------0--------|
--------------------------|--0----1s--12--0--0-----0--|


  PM                                                    
  E  E   E  E  E  E  E   E     E  E  E  E  E  E  E  E   
----------------------------|--0--0--0--0--0--0--0--0--|
----------------------------|--0--0--0--0--0--0--0--0--|
---------------7------------|--5--5--5--5--5--5--5--5--|
------------7-----7---------|--7--7--7--7--7--7--7--7--|
--0--5h--8-----------8p--7--|--0--0--0--0--0--0--0--0--|
----------------------------|--------------------------|


                                          PM       PM  
  E  E  E  E  E  E  E  E     Q    E    E  E  E  E  E   
--0--0--0--0--0--0--0--0--|---------------------------|
--0--0--0--0--0--0--0--0--|---------------------------|
--5--5--5--5--5--5--5--5--|---------------------------|
--7--7--7--7--7--7--7--7--|--0---------------0--------|
--0--0--0--0--0--0--0--0--|--0---------------0--------|
--------------------------|--0----1s--12--0--0-----0--|


  PM                                                            
  E  E   E  E  E  E  E   E      E   E   E   E   E   E   E   E   
----------------------------|----------------------------------|
----------------------------|----------------------------------|
---------------7------------|---9---9---9---9---9---9---9---9--|
------------7-----7---------|--10--10--10--10--10--10--10--10--|
--0--5h--8-----------8p--7--|---8---8---8---8---8---8---8---8--|
----------------------------|---8---8---8---8---8---8---8---8--|


   E   E   E   E   E  E  E  E     E  E  E  E  E  E  E  E   
-------------------------------|--0--L--L--0--L--L--0--L--|
-------------------------------|-----6--L--L--6--L--L--6--|
---9---9---9---9---9-----------|--------7--L--L--7--L--L--|
--10--10--10--10--10-----------|--------------------------|
---8---8---8---8---8-----------|--------------------------|
---8---8---8---8---8-----------|--------------------------|


  E  E  E  E  E  E  E  E     E  E   E  E  E   E  E  E   
--L--0--L--L--0--L--L--0--|--8--L---L--8--L---L--8--L--|
--L--L--6--L--L--6--L--L--|-----8---L--L--8---L--L--8--|
--7--L--L--7--L--L--7--L--|--------10--L--L--10--L--L--|
--------------------------|----------------------------|
--------------------------|----------------------------|
--------------------------|----------------------------|


   E  E  E   E  E  E   E  E      E   E   E   E   E   E   E   E   
---L--8--L---L--8--L---L--8--|--12---L---L--12---L---L--12---L--|
---L--L--8---L--L--8---L--L--|------10---L---L--10---L---L--10--|
--10--L--L--10--L--L--10--L--|----------12---L---L--12---L---L--|
-----------------------------|----------------------------------|
-----------------------------|----------------------------------|
-----------------------------|----------------------------------|


   E   E   E   E   E   E   E   E      E    E   E    E    E   E    E    E   
---L--12---L---L--12---L---L--12--|--13p--12------------------------------|
---L---L--10---L---L--10---L---L--|-----------13h--15p--13----------------|
--12---L---L--12---L---L--12---L--|-------------------------12h--14p--12--|
----------------------------------|---------------------------------------|
----------------------------------|---------------------------------------|
----------------------------------|---------------------------------------|


  PM PM PM                                                                      
  S  S  E  H.               E  E  E  E  E  E  E  E     E  E  E  E  E  E  E  E   
-------------------------|--0--L--L--0--L--L--0--L--|--L--0--L--L--0--L--L--0--|
-------------------------|-----6--L--L--6--L--L--6--|--L--L--6--L--L--6--L--L--|
-----------9b------------|--------7--L--L--7--L--L--|--7--L--L--7--L--L--7--L--|
--0--0--0----------------|--------------------------|--------------------------|
--0--0--0----------------|--------------------------|--------------------------|
--0--0--0----------------|--------------------------|--------------------------|


  E  E   E  E  E   E  E  E      E  E  E   E  E  E   E  E   
--8--L---L--8--L---L--8--L--|---L--8--L---L--8--L---L--8--|
-----8---L--L--8---L--L--8--|---L--L--8---L--L--8---L--L--|
--------10--L--L--10--L--L--|--10--L--L--10--L--L--10--L--|
----------------------------|-----------------------------|
----------------------------|-----------------------------|
----------------------------|-----------------------------|


   E   E   E   E   E   E   E   E      E   E   E   E   E   E   E   E   
--12---L---L--12---L---L--12---L--|---L--12---L---L--12---L---L--12--|
------10---L---L--10---L---L--10--|---L---L--10---L---L--10---L---L--|
----------12---L---L--12---L---L--|--12---L---L--12---L---L--12---L--|
----------------------------------|----------------------------------|
----------------------------------|----------------------------------|
----------------------------------|----------------------------------|


                                          PM PM PM                
   E    E   E    E    E   E    E    E     S  S  E  H.             
--13p--12------------------------------|-------------------------|
-----------13h--15p--13----------------|-------------------------|
-------------------------12h--14p--12--|-----------9b------------|
---------------------------------------|--0--0--0----------------|
---------------------------------------|--0--0--0----------------|
---------------------------------------|--0--0--0----------------|


  PM                                                                    
  W                   W                   W                   H         
-------------------|-------------------|-------------------|-----------|
-------------------|-------------------|-------------------|-----------|
-------------------|-------------------|-------------------|-----------|
--0----------------|-------------------|-------------------|-----------|
--0----------------|-------------------|-------------------|-----------|
--0----------------|-------------------|-------------------|-----------|


  PM                                                                    
  W                   W                   W                   H         
-------------------|-------------------|-------------------|-----------|
-------------------|-------------------|-------------------|-----------|
-------------------|-------------------|-------------------|-----------|
--0----------------|-------------------|-------------------|-----------|
--0----------------|-------------------|-------------------|-----------|
--0----------------|-------------------|-------------------|-----------|


            PM                      PM PM                          PM           
  Q    Q    E  E  E  E     E  E  E  S  S  E  E  E  E     Q    Q    E  E  E  E   
------------------------|-----------------------------|------------------------|
------------------------|-----------------------------|------------------------|
-------7-------7--L-----|-----7--L--------7--7--7--7--|-------7-------7--L-----|
--0---------0--------0--|--L--------0--0--------------|--0---------0--------0--|
--0----5----0--5--L--0--|--L--5--L--0--0--5--5--5--5--|--0----5----0--5--L--0--|
--0---------0--------0--|--L--------0--0--------------|--0---------0--------0--|


           PM PM                           PM            
  E  E  E  S  S  E  E  E  E     Q     Q    E   E  E  E   
-----------------------------|--------------------------|
-----------------------------|--------------------------|
-----7--L--------7--7--7--7--|-------10-------10--L-----|
--L--------0--0--------------|--0----------0---------0--|
--L--5--L--0--0--5--5--5--5--|--0-----8----0---8--L--0--|
--L--------0--0--------------|--0----------0---------0--|


            PM PM                               PM            
  E   E  E  S  S   E   E   E   E     Q     Q    E   E  E  E   
----------------------------------|--------------------------|
----------------------------------|--------------------------|
-----10--L--------10--10--10--10--|-------10-------10--L-----|
--L---------0--0------------------|--0----------0---------0--|
--L---8--L--0--0---8---8---8---8--|--0-----8----0---8--L--0--|
--L---------0--0------------------|--0----------0---------0--|


            PM PM                               PM            
  E   E  E  S  S   E   E   E   E     Q     Q    E   E  E  E   
----------------------------------|--------------------------|
----------------------------------|-------11-------11--L-----|
-----10--L--------10--10--10--10--|-------14-------14--L-----|
--L---------0--0------------------|--0----------0---------0--|
--L---8--L--0--0---8---8---8---8--|--0----------0---------0--|
--L---------0--0------------------|--0----------0---------0--|


            PM PM                               PM            
  E   E  E  S  S   E   E   E   E     Q     Q    E   E  E  E   
----------------------------------|--------------------------|
-----11--L--------11--11--11--11--|-------11-------11--L-----|
-----14--L--------14--14--14--14--|-------14-------14--L-----|
--L---------0--0------------------|--0----------0---------0--|
--L---------0--0------------------|--0----------0---------0--|
--L---------0--0------------------|--0----------0---------0--|


            PM PM                               PM            
  E   E  E  S  S   E   E   E   E     Q     Q    E   E  E  E   
----------------------------------|-------11-------11--L-----|
-----11--L--------11--11--11--11--|-------11-------11--L-----|
-----14--L--------14--14--14--14--|-------14-------14--L-----|
--L---------0--0------------------|--0----------0---------0--|
--L---------0--0------------------|--0----------0---------0--|
--L---------0--0------------------|--0----------0---------0--|


            PM PM                               PM            
  E   E  E  S  S   E   E   E   E     Q     Q    E   E  E  E   
-----11--L--------11--11--11--11--|-------11-------11--L-----|
-----11--L--------11--11--11--11--|-------11-------11--L-----|
-----14--L--------14--14--14--14--|-------14-------14--L-----|
--L---------0--0------------------|--0----------0---------0--|
--L---------0--0------------------|--0----------0---------0--|
--L---------0--0------------------|--0----------0---------0--|


            PM PM                                                          
  E   E  E  S  S   E   E   E   E     W                   W                 
-----11--L--------11--11--11--11--|-------------------|-------------------|
-----11--L--------11--11--11--11--|-------------------|-------------------|
-----14--L--------14--14--14--14--|-------------------|-------------------|
--L---------0--0------------------|--0----------------|--L----------------|
--L---------0--0------------------|--0----------------|--L----------------|
--L---------0--0------------------|--0----------------|--L----------------|


  W                   W                   W                   W                 
-------------------|-------------------|-------------------|-------------------|
-------------------|-------------------|--6----------------|--L----------------|
-------------------|-------------------|--9----------------|--L----------------|
--L----------------|--L----------------|--0----------------|--L----------------|
--L----------------|--L----------------|--0----------------|--L----------------|
--L----------------|--L----------------|--0----------------|--L----------------|


  W                   W                    Q    Q     Q    Q     
-------------------|-------------------|------------------------|
--L----------------|--L----------------|-------------11----6----|
--L----------------|--L----------------|--10----9-----L----L----|
--L----------------|--L----------------|------------------------|
--L----------------|--L----------------|------------------------|
--L----------------|--L----------------|------------------------|


   Q    Q     Q    Q        Q    Q     Q    Q        Q    Q     Q    Q     
------------------------|------------------------|------------------------|
---L----L-----L----L----|--11----6-----L----L----|---L----L----11----6----|
--14----9----10----9----|---L----L----14----9----|--10----9-----L----L----|
------------------------|------------------------|------------------------|
------------------------|------------------------|------------------------|
------------------------|------------------------|------------------------|


   Q    Q     Q    Q        Q    Q     Q    Q        Q    Q     Q    Q     
------------------------|------------------------|------------------------|
---L----L-----L----L----|--11----6-----L----L----|-------------11----6----|
--14----9----10----9----|---L----L----14----9----|--10----9-----L----L----|
------------------------|------------------------|------------------------|
------------------------|------------------------|------------------------|
------------------------|------------------------|------------------------|


   Q    Q     Q    Q        Q    Q     Q    Q        Q    Q     Q    Q     
------------------------|------------------------|------------------------|
---L----L-----L----L----|--11----6-----L----L----|-------------11----6----|
--14----9----10----9----|---L----L----14----9----|--10----9-----L----L----|
------------------------|------------------------|------------------------|
------------------------|------------------------|------------------------|
------------------------|------------------------|------------------------|


   Q    Q     Q    Q        Q    Q     Q    Q        Q    Q     Q    Q     
------------------------|------------------------|------------------------|
---L----L-----L----L----|--11----6-----L----L----|-------------11----6----|
--14----9----10----9----|---L----L----14----9----|--10----9-----L----L----|
------------------------|------------------------|------------------------|
------------------------|------------------------|------------------------|
------------------------|------------------------|------------------------|


   Q    Q     Q    Q        Q    Q     Q    Q        Q    Q     Q    Q     
------------------------|------------------------|------------------------|
---L----L-----L----L----|--11----6-----L----L----|-------------11----6----|
--14----9----10----9----|---L----L----14----9----|--10----9-----L----L----|
------------------------|------------------------|------------------------|
------------------------|------------------------|------------------------|
------------------------|------------------------|------------------------|


   Q    Q     Q    Q        Q    Q     Q    Q        Q    Q     Q    Q     
------------------------|------------------------|------------------------|
---L----L-----L----L----|--11----6-----L----L----|-------------11----6----|
--14----9----10----9----|---L----L----14----9----|--10----9-----L----L----|
------------------------|------------------------|------------------------|
------------------------|------------------------|------------------------|
------------------------|------------------------|------------------------|


   Q    Q     Q    Q        Q    Q     Q    Q        Q    Q     Q    Q     
------------------------|------------------------|------------------------|
---L----L-----L----L----|--11----6-----L----L----|-------------11----6----|
--14----9----10----9----|---L----L----14----9----|--10----9-----L----L----|
------------------------|------------------------|------------------------|
------------------------|------------------------|------------------------|
------------------------|------------------------|------------------------|


   Q    Q     Q    Q        Q    Q     Q    Q        Q    Q     Q    Q     
------------------------|------------------------|------------------------|
---L----L-----L----L----|--11----6-----L----L----|-------------11----6----|
--14----9----10----9----|---L----L----14----9----|--10----9-----L----L----|
------------------------|------------------------|------------------------|
------------------------|------------------------|------------------------|
------------------------|------------------------|------------------------|


   Q    Q     Q    Q        Q    Q     Q    Q        Q    Q     Q    Q     
------------------------|------------------------|------------------------|
---L----L-----L----L----|--11----6-----L----L----|-------------11----6----|
--14----9----10----9----|---L----L----14----9----|--10----9-----L----L----|
------------------------|------------------------|------------------------|
------------------------|------------------------|------------------------|
------------------------|------------------------|------------------------|


   Q    Q     Q    Q        Q    Q     Q    Q        Q    Q     Q    Q     
------------------------|------------------------|------------------------|
---L----L-----L----L----|--11----6-----L----L----|-------------11----6----|
--14----9----10----9----|---L----L----14----9----|--10----9-----L----L----|
------------------------|------------------------|------------------------|
------------------------|------------------------|------------------------|
------------------------|------------------------|------------------------|


   Q    Q     Q    Q       H        H           Q    Q    Q    Q     
------------------------|--------------------|--x---------x---------|
---L----L-----L----L----|--------------------|--x---------x---------|
--14----9----10----L----|--2--------2--------|--x----2----x----1----|
------------------------|--3--------3--------|--x----3----x----2----|
------------------------|--x--------x--------|--x----x----x----x----|
------------------------|--3--------3--------|--x----3----x----2----|


  W                   Q    Q    Q    Q       H        H         
-------------------|----------------------|--------------------|
-------------------|----------------------|--------------------|
--L----------------|--L----1----1----1----|--2--------2--------|
--L----------------|--L----2----2----2----|--3--------3--------|
-------------------|-------x----x----x----|--x--------x--------|
--L----------------|--L----2----2----2----|--3--------3--------|


  Q    Q    Q    E   E     Q    E  E  E  E  E  E     W                 
--x---------x-----------|-------------------------|-------------------|
--x---------x-----------|-------------------------|-------------------|
--x----2----x-----------|--L----------------------|-------------------|
--x----3----x----3s--7--|--L----0--L--L--L--L--L--|--L----------------|
--x----x----x----3s--7--|--L----0--L--L--L--L--L--|--L----------------|
--x----3----x----3s--7--|--L----0--L--L--L--L--L--|--L----------------|


  H        H           Q    Q    Q    Q       W                 
--------------------|--x---------x---------|-------------------|
--------------------|--x---------x---------|-------------------|
--2--------2--------|--x----2----x----1----|--L----------------|
--3--------3--------|--x----3----x----2----|--L----------------|
--x--------x--------|--x----x----x----x----|-------------------|
--3--------3--------|--x----3----x----2----|--L----------------|


  Q    Q    Q    Q       H        H           Q    Q    Q    E   E   
----------------------|--------------------|--x---------x-----------|
----------------------|--------------------|--x---------x-----------|
--L----1----1----1----|--2--------2--------|--x----2----x-----------|
--L----2----2----2----|--3--------3--------|--x----3----x----3s--7--|
-------x----x----x----|--x--------x--------|--x----x----x----3s--7--|
--L----2----2----2----|--3--------3--------|--x----3----x----3s--7--|


  Q    E  E  E  E  E  E     W                    Q    Q     Q     Q     
-------------------------|-------------------|--------8-----L-----L----|
-------------------------|-------------------|-------------12-----L----|
--L----------------------|-------------------|--14----L-----L----14----|
--L----0--L--L--L--L--L--|--L----------------|-------------------------|
--L----0--L--L--L--L--L--|--L----------------|-------------------------|
--L----0--L--L--L--L--L--|--L----------------|-------------------------|


  Q     Q     Q     Q       Q     Q     Q    Q        Q     Q    Q     Q     
--8-----L-----L-----L----|--8-----L-----L----8----|---L-----L----8-----L----|
--L----12-----L-----L----|--L----12-----L----L----|--12-----L----L----12----|
--L-----L----14----13----|--L-----L----13----L----|---L----13----L-----L----|
-------------------------|------------------------|-------------------------|
-------------------------|------------------------|-------------------------|
-------------------------|------------------------|-------------------------|


   Q    Q     Q     Q       Q     Q     Q     Q        Q    Q     Q     Q     
--------8-----L-----L----|--8-----L-----L-----L----|---L----8-----L-----L----|
-------------12-----L----|--L----12-----L-----L----|--12----L-----L----12----|
--14----L-----L----14----|--L-----L----14----13----|---L----L----13-----L----|
-------------------------|-------------------------|-------------------------|
-------------------------|-------------------------|-------------------------|
-------------------------|-------------------------|-------------------------|


  Q     Q    Q     Q        Q    Q     Q     Q       Q     Q     Q     Q     
--8-----L----8-----L----|--------8-----L-----L----|--8-----L-----L-----L----|
--L-----L----L----12----|-------------12-----L----|--L----12-----L-----L----|
--L----13----L-----L----|--14----L-----L----14----|--L-----L----14----13----|
------------------------|-------------------------|-------------------------|
------------------------|-------------------------|-------------------------|
------------------------|-------------------------|-------------------------|


  Q     Q     Q    Q        Q     Q    Q     Q        Q    Q     Q     Q     
--8-----L-----L----8----|---L-----L----8-----L----|--------8-----L-----L----|
--L----12-----L----L----|--12-----L----L----12----|-------------12-----L----|
--L-----L----13----L----|---L----13----L-----L----|--14----L-----L----14----|
------------------------|-------------------------|-------------------------|
------------------------|-------------------------|-------------------------|
------------------------|-------------------------|-------------------------|


  Q     Q     Q     Q       Q    E  E  E  E  E  E     Q    Q    Q    Q      
--8-----L-----L-----L----|--8----L-----------------|----------------------||
--L----12-----L-----L----|--L----L-----------------|----------------------||
--L-----L----14----13----|--L----L-----------------|----------------------||
-------------------------|----------0--L--L--L--L--|--L----L----L----L----||
-------------------------|----------0--L--L--L--L--|--L----L----L----L----||
-------------------------|----------0--L--L--L--L--|--L----L----L----L----||




Duration Legend
---------------
W - whole
H - half
Q - quarter
E - 8th
S - 16th
T - 32nd
X - 64th
. - note dotted
|-n-|  - n-tuplets


Tablature Legend
----------------
L - tied note
x - dead note
g - grace note
(n) - ghost note
> - accentuded note
NH - natural harmonic
AH - artificial harmonic
TH - tapped harmonic
SH - semi harmonic
PH - pitch harmonic
h - hammer on
p - pull off
b - bend
br - bendRelease
pb - preBend
pbr - preBendRelease
brb - bendReleaseBend
\n/ - tremolo bar dip
\n - tremolo bar dive
-/n - tremolo bar Release up
/n\ - tremolo bar inverted dip
/n - tremolo bar return
-\n - tremolo bar Release down
S - shift slide
s - legato slide
/ -  slide into from below or out of upwards
\ -  slide into from above or out of downwards
~ - vibrato
W - wide vibrato
tr - trill
TP - tremolo picking
T - tapping
S - slap
P - pop
< - fade in
^ - brush up
v - brush down

Kingdoms Link: http://www.undergroundoperations.com/website/viewartist.php?id=31

            
            
Suggest correction
Creating personal tab
Creating personal tab
You can edit any tab online and save it as your Personal.

You can edit, replace or remove any tab part or add personal notes – all changes will be seen only by you.

Personal tabs can be accessed anytime from any device, even offline.
Learn more »
Give kudos to tab author, rate the tab!
1 2 3 4 5
comments
print report bad tab
2 comments total.
0 reply
lunetico 41 Jun 24, 2010 08:22 AM

even though they have the tab for this done up on there facebook page which I'm certain that you jacked it from it is well formated. R.I.P Kingdoms

0 reply
Yo_I_<3_Guitar 62 Jun 25, 2010 03:18 AM

Yeah, I kinda almost got banned for this one because it is in the format it is in.

guest
You may want to rate the tab now too:
select rating
Wanna post a correction for this tab? Suggest correction