Oops, an error
Loading. Please wait.
We have an official Charmer tab made by UG professional guitarists. Check out the tab »
×
8,212 views 3 this week
1 commentread comment
1 2 3 4 5
x 6
add to favorites
×
Save as Personal and add changes to this tab that will be seen only by you. Learn more ›
×
You can save this tab as Personal to edit and correct it or add notes. All changes will be seen only by you. Learn more »
launch autoscroll
font size
0
reset
guitar tuner
edit
Autoscroll
slow
fast
+/-
esc
set tempo
stop
Difficulty
intermediate
----------------------------------------------------------------------------
			     Charmer - Kings Of Leon
----------------------------------------------------------------------------

Tabbed By : BlocPartyFreak
e-mail: madfender@gmail.com

Tuning:Standard

I had to watch a hell of a lot of vids to get this! 

Sorry if it's so long, I just wanted to get the timing right!

Intro

00:05 - 00:38
G|-----------------------------------------------------------|
D|-----------------------------------------------------------|
A|----------2-2-2-2------------------------------------------|  x10
E|--3-3-3-3---------0-0-0-0--2-2-2-2-------------------------|

Chorus

00:39 - 00:52

(7's for easier access to the slide to 12).
G|-----------------------------------------------------------|
D|-----------------------------------------------------------|
A|-----------------------------------------------------------|  x4
E|--3-3-3-3--7-7-7-7///12-0-0-0-0-0--2-2-2-2-----------------|
                    ^Do this really fast then quickly continue with the 0's.

Verse
00:52 - 01:11

G|-----------------------------------------------------------|
D|-----------------------------------------------------------|
A|----------2-2-2-2------------------------------------------|  x6
E|--3-3-3-3---------0-0-0-0--2-2-2-2-------------------------|

Chorus 2

01:12 - 01:24

G|-----------------------------------------------------------|
D|-----------------------------------------------------------|
A|-----------------------------------------------------------|  x4
E|--3-3-3-3--7-7-7-7///12-0-0-0-0-0--2-2-2-2-----------------|


01:24 
  STOP
G|-----|
D|-----|
A|-----| 
E|--3--| 

01:27
G|-----|
D|-----|
A|-----| 
E|--3--|

Chorus 3

01:28 - 01:40

G|-----------------------------------------------------------|
D|-----------------------------------------------------------|
A|----------2-2-2-2------------------------------------------|  
E|--3-3-3-3---------0-0-0-0--2-2-2-2-------------------------|

G|-----------------------------------------------------------|
D|-----------------------------------------------------------|
A|-----------------------------------------------------------|  
E|--3-3-3-3--7-7-7-7///12-0-0-0-0-0--2-2-2-2-----------------|

G|-----------------------------------------------------------|
D|-----------------------------------------------------------|
A|----------2-2-2-2------------------------------------------|  
E|--3-3-3-3---------0-0-0-0--2-2-2-2-------------------------|

G|-----------------------------------------------------------|
D|-----------------------------------------------------------|
A|----------2-2-2-2------------------------------------------|  
E|--3-3-3-3---------0-0-0-0--2-2-2-2-------------------------|


Verse 2
01:40 - 01:53
G|-----------------------------------------------------------|
D|-----------------------------------------------------------|
A|----------2-2-2-2------------------------------------------|  
E|--3-3-3-3---------0-0-0-0--2-2-2-2-------------------------|

Then he pauses a bit.

G|-----------------------------------------------------------|
D|-----------------------------------------------------------|
A|----------2-2-2--------------------------------------------|  
E|--3-3-3-3----------0-0-0---2-2-2-2-------------------------|

G|-----------------------------------------------------------|
D|-----------------------------------------------------------|
A|----------2-2-2-2------------------------------------------|  x2
E|--3-3-3-3---------0-0-0-0--2-2-2-2-------------------------|


Chorus 4
01:53 - 02:06
G|-----------------------------------------------------------|
D|-----------------------------------------------------------|
A|-----------------------------------------------------------|  x4
E|--3-3-3-3--7-7-7-7///12-0-0-0-0-0--2-2-2-2-----------------|

G|-----|
D|-----|
A|-----| 
E|--3--|

Bridge
02:08 - 02:28

G|---------------------|
D|--2-2-2--------------|
A|---------3-3--2-2----|  x2
E|------------------3--|

G|-----------------------|
D|-5555/2-2-2------------|
A|------------3-3--2-2---|  x3
E|---------------------3-|

This variation at 02:23
G|------/9--------------------|
D|-5555----2-2-2-2------------|
A|-----------------3-3--2-2---|  x1
E|--------------------------3-|

G|-----------------------|
D|-5555/2-2-2------------|
A|------------3-3--2-2---|  
E|---------------------3-|

Solo/Outro

02:28
G|---------------------------------------------------------|
D|---------------------------------------------------------|
A|---------------------------------------------------------|  x4
E|--3-3-3-3--7-7-7-7///12-0-0-0-0-0--2-2-2-2---------------|

G|---------------------------------------------------------|
D|---------------------------------------------------------|
A|---------------------------------------------------------|  
E|--3/12---------(02:43)--12/3-----------------------------|
    ^Fast slide

G|-----------------------------------------------------------|
D|-----------------------------------------------------------|
A|----------2-2-2-2------------------------------------------|  x4
E|--3-3-3-3---------0-0-0-0--2-2-2-2-------------------------|


End on 
02:56
G|-----|
D|-----|
A|-----| 
E|--3--|




Lyrics

She's such a charmer oh no. 
She's such a charmer oh no. 
She's always looking at me. 
She's always looking at me. 
She's such a charmer oh no. 

She's stole my karma oh no. 
Sold it to the farmer oh no. 
She's always looking at me. 
She's always looking at me. 
She's such a charmer oh no. 

Born in west virginia oh no. 
Married to the preacher oh no. 
Shes always looking at me. 
Shes always looking at me. 
Shes such a charmer oh no. 

Shes always looking at me. 
Shes always looking at me. 
Shes such a charmer oh no. oh no.




Any comments and corrections welcome.
BlocPartyFreak.



            
            
Suggest correction
Creating personal tab
Creating personal tab
You can edit any tab online and save it as your Personal.

You can edit, replace or remove any tab part or add personal notes – all changes will be seen only by you.

Personal tabs can be accessed anytime from any device, even offline.
Learn more »
comments
print report bad tab
1 comment total.
0 reply
Emel 10 Jun 29, 2011 10:00 AM

This tab its great! the first one its wrong at the bridge

guest
Wanna post a correction for this tab? Suggest correction