Oops, an error
Loading. Please wait.
We have an official Closer tab made by UG professional guitarists. Check out the tab »
×
14,817 views 6 this week
1 commentread comment
1 2 3 4 5
x 8
add to favorites
×
Save as Personal and add changes to this tab that will be seen only by you. Learn more ›
×
You can save this tab as Personal to edit and correct it or add notes. All changes will be seen only by you. Learn more »
launch autoscroll
font size
0
reset
guitar tuner
edit
Autoscroll
slow
fast
+/-
esc
set tempo
stop
Author
tabbed by pavelardo	

Intro is a synth but you can play it with delay effect, and it goes like this
G|-----------161616-----------191919----------181818-|
D|---------------------------------------------------|
A|-1414141414-------1717171717------1616161616-------|
E|---------------------------------------------------|

Verse               x2
G|------------------|
D|------------------|
A|--2~-----5~-------|
E|---------------5~-|

G|----------------------|
D|----------------------|
A|--2~-----5~----12-/14-|
E|----------------------|

                    x3
G|------------------|
D|------------------|
A|--2~-----5~-------|
E|---------------5~-|

G|----------------------|
D|----------------------|
A|--2~-----5~----12-/14-|
E|----------------------|
                    x3
G|------------------|
D|------------------|
A|--2~-----5~-------|
E|---------------5~-|

Chorus
G|----------------------|
D|----------------------|
A|--2~-----5~----12-/14-|
E|----------------------|

G|---------------------------|
D|---------------------------|
A|--2~-----5~----12-/1616-14-|
E|---------------------------|

G|---------------------|
D|---------------------|
A|--2~-----5~----------|
E|---------------5~--3-|

Verse              x3
G|------------------|
D|------------------|
A|--2~-----5~-------|
E|---------------5~-|

Chorus
G|----------------------|
D|----------------------|
A|--2~-----5~----12-/14-|
E|----------------------|

G|------------------|
D|------------------|
A|--2~-----5~-------|
E|---------------5~-|

G|---------------------------|
D|---------------------------|
A|--2~-----5~----12-/1616-14-|
E|---------------------------|

G|------------------|
D|------------------|
A|--2~-----5~-------|
E|---------------5~-|

G|---------------------|
D|---------------------|
A|--2~-----5~----------|
E|---------------5~--3-|

Ending
G|----------------------|
D|----------------------|
A|-2~----5--5/9------/9-|
E|---------------5--5---|

G|-----------------------|
D|-----------------------|
A|-2--24--5--5/9------/9-|
E|----------------5--5---|

G|-----------------|
D|-----------------|
A|-2--24--5~-------|
E|---------------5~|

G|---|
D|---|
A|-2-|
E|---|

please rate it!

            
            
Suggest correction
Creating personal tab
Creating personal tab
You can edit any tab online and save it as your Personal.

You can edit, replace or remove any tab part or add personal notes – all changes will be seen only by you.

Personal tabs can be accessed anytime from any device, even offline.
Learn more »
comments
print report bad tab
1 comment total.
0 reply
antroolez 920 Jul 22, 2009 02:49 PM

intro isnt a synth at all, its Jared using the Pitch shifter effect on an ME50 or 70 i believe...

lot more to this song than what you've tabbed old bean, if you listen you can hear he carries on that effect right through to the end

guest
You may want to rate the tab now too:
select rating
Wanna post a correction for this tab? Suggest correction