Oops, an error
Loading. Please wait.

Cold Desert bass

version 2
version 2

Whole song

Interactive

40,436 views 30 this week
10 commentsread comments
1 2 3 4 5
x 33
add to favorites
×
Save as Personal and add changes to this tab that will be seen only by you. Learn more ›
×
You can save this tab as Personal to edit and correct it or add notes. All changes will be seen only by you. Learn more »
launch autoscroll
font size
0
reset
guitar tuner
edit
Autoscroll
slow
fast
+/-
esc
set tempo
stop
Author
Difficulty
intermediate
[Intro]
G|--7---7---7---7--\6---7---9---4---4---4---4---4---4---4--/7---7---7---7---7-|
D|0---0---0---0---0---0---0---0---0---0---0---0---0---0---0---0---0---0---0---|
A|----------------------------------------------------------------------------|
E|----------------------------------------------------------------------------|

G|--6---7---9---4---4---4---4---4---4---4--/11--11--11--11--12--14--12--11--12--|
D|0---0---0---0---0---0---0---0---0---0---0---0---0---0---0---0---0---0---0---0-|
A|------------------------------------------------------------------------------|
E|------------------------------------------------------------------------------|

G|/16--16--16--16--18--19--18--16--18--11--11--11--12--14--12--11--12-/16--16--|
D|---0---0---0---0---0---0---0---0---0---0---0---0---0---0---0---0---0---0---0-|
A|-----------------------------------------------------------------------------|
E|-----------------------------------------------------------------------------|

G|-16--16--18--19--18--16--18-|
D|---0---0---0---0---0---0----|
A|----------------------------|
E|----------------------------|

[Verse]
G|--7---7---7---7---7---7---7---7---7---7---7---7---7---7---7---7---7---7---7---|
D|0---0---0---0---0---0---0---0---9---9---9---9---9---9---9---9---7---7---7---7-|
A|------------------------------------------------------------------------------|
E|------------------------------------------------------------------------------|

G|--7---7---7---7---7---7---7---7---7---7---7---7---7-|
D|----7---7---7---7---5---5---5---5---5---5---5---5---| (x2)
A|----------------------------------------------------|
E|----------------------------------------------------|

[Bridge]
G|-/11--11--11--11--12--14--12--11--12-/16--16--16--16--18--19--18--16--18--11--|
D|0---0---0---0---0---0---0---0---0---0---0---0---0---0---0---0---0---0---0---0-|
A|------------------------------------------------------------------------------|
E|------------------------------------------------------------------------------|

G|-11--11--12--14--12--11--12-/16--16--16--16--18--19--18--16--18-|
D|0---0---0---0---0---0---0---0---0---0---0---0---0---0---0---0---|
A|----------------------------------------------------------------|
E|----------------------------------------------------------------|

[Verse]
G|--7---7---7---7---7---7---7---7---7---7---7---7---7---7---7---7---7---7---7---|
D|0---0---0---0---0---0---0---0---9---9---9---9---9---9---9---9---7---7---7---7-|
A|------------------------------------------------------------------------------|
E|------------------------------------------------------------------------------|

G|--7---7---7---7---7---7---7---7---7---7---7---7---7-|
D|----7---7---7---7---5---5---5---5---5---5---5---5---| (x3)
A|----------------------------------------------------|
E|----------------------------------------------------|

[Instrumental]
G|-/11--11--11--11--12--14--12--11--12-/16--16--16--16--18--19--18--16--18--11--|
D|0---0---0---0---0---0---0---0---0---0---0---0---0---0---0---0---0---0---0---0-|
A|------------------------------------------------------------------------------|
E|------------------------------------------------------------------------------|

G|-11--11--12--14--12--11--12-/16--16--16--16--18--19--18--16--18-|
D|0---0---0---0---0---0---0---0---0---0---0---0---0---0---0---0---|
A|----------------------------------------------------------------|
E|----------------------------------------------------------------|

[Verse]
G|--7---7---7---7---7---7---7---7---7---7---7---7---7---7---7---7---7---7---7---|
D|0---0---0---0---0---0---0---0---9---9---9---9---9---9---9---9---7---7---7---7-|
A|------------------------------------------------------------------------------|
E|------------------------------------------------------------------------------|

G|--7---7---7---7---7---7---7---7---7---7---7---7---7-|
D|----7---7---7---7---5---5---5---5---5---5---5---5---|
A|----------------------------------------------------|
E|----------------------------------------------------|



************************************

| /  Slide up
| \  Slide down

************************************

            
            
Suggest correction
Creating personal tab
Creating personal tab
You can edit any tab online and save it as your Personal.

You can edit, replace or remove any tab part or add personal notes – all changes will be seen only by you.

Personal tabs can be accessed anytime from any device, even offline.
Learn more »
comments
print report bad tab
10 comments total. Showing first comments.
+5 reply
johnwh92 10 Oct 26, 2008 06:48 PM

god bless you for tabbing this, 100% perfect

0 reply
benblakeway14 10 Nov 02, 2008 09:53 AM

Nice tab, buddy.

It's just you don't need the open D string when he goes up to the 11th fret on the G at the start (and whenever else he plays that part). I think it's just in the intro.

5 stars anyway.

+3 reply
Xren 550 Dec 16, 2008 10:03 AM

Great work :)

guest
You may want to rate the tab now too:
select rating
Wanna post a correction for this tab? Suggest correction