Oops, an error
Loading. Please wait.
We have an official Crawl tab made by UG professional guitarists. Check out the tab »
×
8,202 views 1 this week
no commentswrite comment
1 2 3 4 5
1 last vote to show rating
add to favorites
×
Save as Personal and add changes to this tab that will be seen only by you. Learn more ›
×
You can save this tab as Personal to edit and correct it or add notes. All changes will be seen only by you. Learn more »
launch autoscroll
font size
0
reset
guitar tuner
backing track
0:00
0:00
edit
Autoscroll
slow
fast
+/-
esc
set tempo
stop
#----------------------------------PLEASE NOTE---------------------------------#
#This file is the author's own work and represents their interpretation of the #
#song. You may only use this file for private study, scholarship, or research. #
#------------------------------------------------------------------------------#

CRAWL

(Bassline)


Transcribed by unregistered
	



Gtr I (E A D G) - 'Distorted Bass'
Gtr II (E A D G) - 'Drums'
Gtr III (E A D G) - 'Bass'

 Intro
  Q=90
 4/4
  Gtr II
  H     S  S  S  S  S  S  S  S    S  S S  S  S  S S  S  S  S S  S  S S  E
|------14-14-14-14-14-14-14-14-|------------14--------------------14------|
|------------------------------|------------------------------------------|
|------------------------------|-12-12---12----12---12-12-12---12------12-|
|------------------------------|------------------------------------------|


   S  S S  S  S  S S  S  S  S S  S  S S  E
|------------14--------------------14------|
|------------------------------------------|
|-12-12---12----12---12-12-12---12------12-|
|------------------------------------------|


   S  S S  S  S  S S  S  S  S S  S  S S  E      S  S S  S  S  S S  S  S  S S  S  S S  E
|------------14--------------------14--------|------------14--------------------14--------|
|--------------------------------------------|--------------------------------------------|
|-12-12---12----12---12-12-12---12------12---|-12-12---12----12---12-12-12---12------12---|
|--------------------------------------------|--------------------------------------------|
|
| Gtr I
|  S  S S  S  S  S S  S  S  S S  S  S S  S S    S  S S  S  S  S S  S  S  S S  S  S S  S S
|--------------------------------------------|--------------------------------------------|
|----------7-------7-------------7-------7---|----------7-------7-------------7-------7---|
|--------------------------------------------|--------------------------------------------|
|-----0-5--------5----5-----0-5-------5----5-|-----0-5--------5----5-----0-5-------5----5-|


   S  S S  S  S  S S  S  S  S S  S  S S  E      S  S S  S  S  S S  S  S  S S  S  S S  E
|------------14--------------------14--------|------------14--------------------14----------|
|--------------------------------------------|----------------------------------------------|
|-12-12---12----12---12-12-12---12------12---|-12-12---12----12---12-12-12---12------12-----|
|--------------------------------------------|----------------------------------------------|
|
|  S  S S  S  S  S S  S  S  S S  S  S S  S S    S  S S  S  S  S S  S  S  S S  S  S S  S S
|--------------------------------------------|----------------------------------------------|
|----------7-------7-------------7-------7---|----------7-------7-------------7-------7-----|
|--------------------------------------------|----------------------------------------------|
|-----0-5--------5----5-----0-5-------5----5-|-----0-5--------5----5-----0-5-------5----5---|


   S  S S  S  S  S S  S  S  S S  S  S S  E      S  S S  S  S  S S  S  S  S S  S  S S  E
|------------14--------------------14--------|------------14--------------------14--------|
|--------------------------------------------|--------------------------------------------|
|-12-12---12----12---12-12-12---12------12---|-12-12---12----12---12-12-12---12------12---|
|--------------------------------------------|--------------------------------------------|
|
|  S  S S  S  S  S S  S  S  S S  S  S S  S S    S  S S  S  S  S S  S  S  S S  S  S S  S S
|--------------------------------------------|--------------------------------------------|
|----------7-------7-------------7-------7---|----------7-------7-------------7-------7---|
|--------------------------------------------|--------------------------------------------|
|-----0-5--------5----5-----0-5-------5----5-|-----0-5--------5----5-----0-5-------5----5-|


   S  S S  S  S  S S  S  S  S S  S  S S  E      S  S S  S  S  S S  S  S   S  S  S  S  S  E
|------------14--------------------14--------|------------14----------------------14------------|
|--------------------------------------------|--------------------------------------------------|
|-12-12---12----12---12-12-12---12------12---|-12-12---12----12---12-12--12----12-------12------|
|--------------------------------------------|--------------------------------------------------|
|
|  S  S S  S  S  S S  S  S  S S  S  S S  S S    S  S S  S  S  S S  S  S   S  S  S  S  S  S  S
|--------------------------------------------|--------------------------------------------------|
|----------7-------7-------------7-------7---|----------7-------7-------/12-12-12-12-12-12\-----|
|--------------------------------------------|--------------------------------------------------|
|-----0-5--------5----5-----0-5-------5----5-|-----0-5--------5----5----------------------------|


     S  S S  S  S  S S  S  S  S S  S  S S  E      S  S S  S  S  S S  S  S  S S  S  S S  E
||-------------14--------------------14--------|------------14--------------------14--------|
||o--------------------------------------------|--------------------------------------------|
||o-12-12---12----12---12-12-12---12------12---|-12-12---12----12---12-12-12---12------12---|
||---------------------------------------------|--------------------------------------------|
|
|    S  S S  S  S  S S  S  S  S S  S  S S  S S    S  S S  S  S  S S  S  S  S S  S  S S  S S
||---------------------------------------------|--------------------------------------------|
||o----------7-------7-------------7-------7---|----------7-------7-------------7-------7---|
||o--------------------------------------------|--------------------------------------------|
||------0-5--------5----5-----0-5-------5----5-|-----0-5--------5----5-----0-5-------5----5-|


  1.
   S  S S  S  S  S S  S  S  S S  S  S S  E      S  S S  S  S  S S  S  S  S S  S  S S  E
|------------14--------------------14--------|------------14--------------------14-----------||
|--------------------------------------------|----------------------------------------------o||
|-12-12---12----12---12-12-12---12------12---|-12-12---12----12---12-12-12---12------12-----o||
|--------------------------------------------|-----------------------------------------------||
|
|  S  S S  S  S  S S  S  S  S S  S  S S  S S    S  S S  S  S  S S  S  S  S S  S  S S  S S
|--------------------------------------------|-----------------------------------------------||
|----------7-------7-------------7-------7---|----------7-------7-------------7-------7-----o||
|--------------------------------------------|----------------------------------------------o||
|-----0-5--------5----5-----0-5-------5----5-|-----0-5--------5----5-----0-5-------5----5----||


   Verses 1 & 2
    2.
     S  S S  S  S  S S  S  S  S S  S  S S  E      S  S S  S  S  S S  S  S  S S  S  S S  E
||-------------14--------------------14--------|------------14--------------------14--------|
||o--------------------------------------------|--------------------------------------------|
||o-12-12---12----12---12-12-12---12------12---|-12-12---12----12---12-12-12---12------12---|
||---------------------------------------------|--------------------------------------------|
|
|    S  S S  S  S  S S  S  S  S S  S  S S  S S    S  S S  S  S  S S  S  S  S S  S  S S  S S
||---------------------------------------------|--------------------------------------------|
||o----------7-------7-------------7-------7---|----------7-------7-------------7-------7---|
||o--------------------------------------------|--------------------------------------------|
||------0-5--------5----5-----0-5-------5----5-|-----0-5--------5----5-----0-5-------5----5-|


   S  S S  S  S  S S  S  S  S S  S  S S  E      S  S S  S  S  S S  S  S  S S  S  S S  E
|------------14--------------------14--------|------------14--------------------14----------|
|--------------------------------------------|----------------------------------------------|
|-12-12---12----12---12-12-12---12------12---|-12-12---12----12---12-12-12---12------12-----|
|--------------------------------------------|----------------------------------------------|
|
|  S  S S  S  S  S S  S  S  S S  S  S S  S S    S  S S  S  S  S S  S  S  S S  S  S S  S S
|--------------------------------------------|----------------------------------------------|
|----------7-------7-------------7-------7---|----------7-------7-------------7-------7-----|
|--------------------------------------------|----------------------------------------------|
|-----0-5--------5----5-----0-5-------5----5-|-----0-5--------5----5-----0-5-------5----5---|


   S  S S  S  S  S S  S  S  S S  S  S S  E      S  S S  S  S  S S  S  S  S S  S  S S  E
|------------14--------------------14--------|------------14--------------------14--------|
|--------------------------------------------|--------------------------------------------|
|-12-12---12----12---12-12-12---12------12---|-12-12---12----12---12-12-12---12------12---|
|--------------------------------------------|--------------------------------------------|
|
|  S  S S  S  S  S S  S  S  S S  S  S S  S S    S  S S  S  S  S S  S  S  S S  S  S S  S S
|----------7-------7-------------7-------7---|----------7-------7-------------7-------7---|
|--------------------------------------------|--------------------------------------------|
|-----0-5--------5----5-----0-5-------5----5-|-----0-5--------5----5-----0-5-------5----5-|
|--------------------------------------------|--------------------------------------------|


   S  S S  S  S  S S  S  S  S S  S  S S  E      S  S S  S  S  S S  S E    S  S S  S  S  S
|------------14--------------------14--------|------------14--------------------------------|
|--------------------------------------------|----------------------------------------------|
|-12-12---12----12---12-12-12---12------12---|-12-12---12----12---12-----12-12---12-12-12---|
|--------------------------------------------|----------------------------------------------|
|
|  S  S S  S  S  S S  S  S  S S  S  S S  S S    S  S S  S  S  S S  S S S  S  S S  S  S  S
|--------------------------------------------|----------------------------------------------|
|----------7-------7-------------7-------7---|----------7-------7------------7-------7------|
|--------------------------------------------|----------------------------------------------|
|-----0-5--------5----5-----0-5-------5----5-|-----0-5--------5----5---0--5-------5-----5---|


 Interlude
  1.
   S  S S  S  S  S S  S  S  S S  S  S S  E      S  S S  S  S  S S  S  S  S S  S  S S  E
|------------14--------------------14--------|------------14--------------------14--------|
|--------------------------------------------|--------------------------------------------|
|-12-12---12----12---12-12-12---12------12---|-12-12---12----12---12-12-12---12------12---|
|--------------------------------------------|--------------------------------------------|
|
|  S  S S  S  S  S S  S  S  S S  S  S S  S S    S  S S  S  S  S S  S  S  S S  S  S S  S S
|----------7-------7-------------7-------7---|----------7-------7-------------7-------7---|
|--------------------------------------------|--------------------------------------------|
|-----0-5--------5----5-----0-5-------5----5-|-----0-5--------5----5-----0-5-------5----5-|
|--------------------------------------------|--------------------------------------------|


   S  S S  S  S  S S  S  S  S S  S  S S  E      S  S S  S  S  S S  S E    S  S S  S  S  S
|------------14--------------------14--------|------------14--------------------------------|
|--------------------------------------------|----------------------------------------------|
|-12-12---12----12---12-12-12---12------12---|-12-12---12----12---12-----12-12---12-12-12---|
|--------------------------------------------|----------------------------------------------|
|
|  S  S S  S  S  S S  S  S  S S  S  S S  S S    S  S S  S  S  S S  S S S  S  S S  S  S  S
|--------------------------------------------|----------------------------------------------|
|----------7-------7-------------7-------7---|----------7-------7------------7-------7------|
|--------------------------------------------|----------------------------------------------|
|-----0-5--------5----5-----0-5-------5----5-|-----0-5--------5----5---0--5-------5-----5---|


   S  S S  S  S  S S  S  S  S S  S  S S  E      S  S S  S  S  S S  S  S  S S  S  S S  E
|------------14--------------------14--------|------------14--------------------14--------|
|--------------------------------------------|--------------------------------------------|
|-12-12---12----12---12-12-12---12------12---|-12-12---12----12---12-12-12---12------12---|
|--------------------------------------------|--------------------------------------------|
|
|  S  S S  S  S  S S  S  S  S S  S  S S  S S    S  S S  S  S  S S  S  S  S S  S  S S  S S
|--------------------------------------------|--------------------------------------------|
|----------7-------7-------------7-------7---|----------7-------7-------------7-------7---|
|--------------------------------------------|--------------------------------------------|
|-----0-5--------5----5-----0-5-------5----5-|-----0-5--------5----5-----0-5-------5----5-|


   S  S S  S  S  S S  S  S  S S  S  S S  E
|------------14--------------------14-----------|
|-----------------------------------------------|
|-12-12---12----12---12-12-12---12------12------|
|-----------------------------------------------|
|
|  S  S S  S  S  S S  S  S  S S  S  S S  S S
|-----------------------------------------------|
|----------7-------7-------------7-------7------|
|-----------------------------------------------|
|-----0-5--------5----5-----0-5-------5----5----|


   S  S S  S  S  S S  S  S  S S  S  S S  E      S  S S  S  S  S S  S  S  S S  S  S S  E
|------------14--------------------14--------|------------14--------------------14--------|
|--------------------------------------------|--------------------------------------------|
|-12-12---12----12---12-12-12---12------12---|-12-12---12----12---12-12-12---12------12---|
|--------------------------------------------|--------------------------------------------|
|
|  S  S S  S  S  S S  S  S  S S  S  S S  S S    S  S S  S  S  S S  S  S  S S  S  S S  S S
|--------------------------------------------|--------------------------------------------|
|----------7-------7-------------7-------7---|----------7-------7-------------7-------7---|
|--------------------------------------------|--------------------------------------------|
|-----0-5--------5----5-----0-5-------5----5-|-----0-5--------5----5-----0-5-------5----5-|


   S  S S  S  S  S S  S  S  S S  S  S S  E
|------------14--------------------14------------||
|-----------------------------------------------o||
|-12-12---12----12---12-12-12---12------12------o||
|------------------------------------------------||
|
|  S  S S  S  S  S S  S  S  S S  S  S S  S S
|------------------------------------------------||
|----------7-------7-------------7-------7------o||
|-----------------------------------------------o||
|-----0-5--------5----5-----0-5-------5----5-----||


 Chorus
  2.
   E  E  E     E     E  E  E     E       E  E  E     E     E  E  E     E
|-------14----------------14----------|-------14----------------14----------|
|-------------------------------------|-------------------------------------|
|-12-12-------12----12-12-------12----|-12-12-------12----12-12-------12----|
|-------------------------------------|-------------------------------------|
|
| Gtr III
|  Q     S  S  S  S  Q     S  S  S  S    Q     S  S  S  S  Q     S  S  S  S
|-------12----------------12----------|-------12----------------12----------|
|----------14-12-14----------14-12-14-|----------14-12-14----------14-12-14-|
|-------------------------------------|-------------------------------------|
|-------------------------------------|-------------------------------------|


   E  E  E     E     E  E  E     E       E  E  E     S  S S  S  S S  S  S  S  S
|-------14----------------14----------|-------14---------------14---14-14-14-14-|
|-------------------------------------|-----------------------------------------|
|-12-12-------12----12-12-------12----|-12-12-------12-12---12------------------|
|-------------------------------------|-----------------------------------------|
|
|  Q     S  S  S  S  Q     S  S  S  S    Q     S  S  S  S Q          S  S  S  S
|-------12----------------12----------|-------12--------------------12----------|
|----------14-12-14----------14-12-14-|----------14-12-14--------------14-12-14-|
|-------------------------------------|-----------------------------------------|
|-------------------------------------|-----------------------------------------|


   E  E  E     E     E  E  E     E       E  E  E     E     E  E  E     E
|-------14----------------14----------|-------14----------------14----------|
|-------------------------------------|-------------------------------------|
|-12-12-------12----12-12-------12----|-12-12-------12----12-12-------12----|
|-------------------------------------|-------------------------------------|
|
|  Q     S  S  S  S  Q     S  S  S  S    Q     S  S  S  S  Q     S  S  S  S
|-------12----------------12----------|-------12----------------12----------|
|----------14-12-14----------14-12-14-|----------14-12-14----------14-12-14-|
|-------------------------------------|-------------------------------------|
|-------------------------------------|-------------------------------------|


   E  E  E     E     E  E  E     E       Q       H.
|-------14----------------14----------|-14------------------------------------|
|-------------------------------------|---------------------------------------|
|-12-12-------12----12-12-------12----|---------------------------------------|
|-------------------------------------|---------------------------------------|
|
|                                       Gtr I
|  Q     S  S  S  S  Q     S  S  S  S    S S S S E   S a S S S S S S S  S S
|-------12----------------12----------|--7-9-9-7-9---7-7h9---7----------------|
|----------14-12-14----------14-12-14-|------------------------9-7------------|
|-------------------------------------|----------------------------9-7--------|
|-------------------------------------|--------------------------------10-7---|


 Interlude 2
   S  S S  S  S  S S  S  S  S S  S  S S  E      S  S S  S  S  S S  S  S  S S  S  S S  E
|------------14--------------------14--------|------------14--------------------14--------|
|--------------------------------------------|--------------------------------------------|
|-12-12---12----12---12-12-12---12------12---|-12-12---12----12---12-12-12---12------12---|
|--------------------------------------------|--------------------------------------------|
|
|  S  S S  S  S  S S  S  S  S S  S  S S  S S    S  S S  S  S  S S  S  S  S S  S  S S  S S
|--------------------------------------------|--------------------------------------------|
|----------7-------7-------------7-------7---|----------7-------7-------------7-------7---|
|--------------------------------------------|--------------------------------------------|
|-----0-5--------5----5-----0-5-------5----5-|-----0-5--------5----5-----0-5-------5----5-|


   S  S S  S  S  S S  S  S  S S  S  S S  E
|------------14--------------------14-----------|
|-----------------------------------------------|
|-12-12---12----12---12-12-12---12------12------|
|-----------------------------------------------|
|
|  S  S S  S  S  S S  S  S  S S  S  S S  S S
|-----------------------------------------------|
|----------7-------7-------------7-------7------|
|-----------------------------------------------|
|-----0-5--------5----5-----0-5-------5----5----|


   S  S S  S  S  S S  S  S  S S  S  S S  E      S  S S  S  S  S S  S  S  S S  S  S S  E
|------------14--------------------14--------|------------14--------------------14--------|
|--------------------------------------------|--------------------------------------------|
|-12-12---12----12---12-12-12---12------12---|-12-12---12----12---12-12-12---12------12---|
|--------------------------------------------|--------------------------------------------|
|
|  S  S S  S  S  S S  S  S  S S  S  S S  S S    S  S S  S  S  S S  S  S  S S  S  S S  S S
|--------------------------------------------|--------------------------------------------|
|----------7-------7-------------7-------7---|----------7-------7-------------7-------7---|
|--------------------------------------------|--------------------------------------------|
|-----0-5--------5----5-----0-5-------5----5-|-----0-5--------5----5-----0-5-------5----5-|


   S  S S  S  S  S S  S  S  S S  S  S S  E
|------------14--------------------14-----------|
|-----------------------------------------------|
|-12-12---12----12---12-12-12---12------12------|
|-----------------------------------------------|
|
|  S  S S  S  S  S S  S  S  S S  S  S S  S S
|-----------------------------------------------|
|----------7-------7-------------7-------7------|
|-----------------------------------------------|
|-----0-5--------5----5-----0-5-------5----5----|


 Verse 3
   S  S S  S  S  S S  S  S  S S  S  S S  E      S  S S  S  S  S S  S  S  S S  S  S S  E
|------------14--------------------14--------|------------14--------------------14--------|
|--------------------------------------------|--------------------------------------------|
|-12-12---12----12---12-12-12---12------12---|-12-12---12----12---12-12-12---12------12---|
|--------------------------------------------|--------------------------------------------|
|
|  S  S S  S  S  S S  S  S  S S  S  S S  S S    S  S S  S  S  S S  S  S  S S  S  S S  S S
|--------------------------------------------|--------------------------------------------|
|----------7-------7-------------7-------7---|----------7-------7-------------7-------7---|
|--------------------------------------------|--------------------------------------------|
|-----0-5--------5----5-----0-5-------5----5-|-----0-5--------5----5-----0-5-------5----5-|


   S  S S  S  S  S S  S  S  S S  S  S S  E      S  S S  S  S  S S  S  S  S S  S  S S  E
|------------14--------------------14--------|------------14--------------------14----------|
|--------------------------------------------|----------------------------------------------|
|-12-12---12----12---12-12-12---12------12---|-12-12---12----12---12-12-12---12------12-----|
|--------------------------------------------|----------------------------------------------|
|
|  S  S S  S  S  S S  S  S  S S  S  S S  S S    S  S S  S  S  S S  S  S  S S  S  S S  S S
|--------------------------------------------|----------------------------------------------|
|----------7-------7-------------7-------7---|----------7-------7-------------7-------7-----|
|--------------------------------------------|----------------------------------------------|
|-----0-5--------5----5-----0-5-------5----5-|-----0-5--------5----5-----0-5-------5----5---|


   S  S S  S  S  S S  S  S  S S  S  S S  E      S  S S  S  S  S S  S  S  S S  S  S S  E
|------------14--------------------14--------|------------14--------------------14--------|
|--------------------------------------------|--------------------------------------------|
|-12-12---12----12---12-12-12---12------12---|-12-12---12----12---12-12-12---12------12---|
|--------------------------------------------|--------------------------------------------|
|
|  S  S S  S  S  S S  S  S  S S  S  S S  S S    S  S S  S  S  S S  S  S  S S  S  S S  S S
|----------7-------7-------------7-------7---|----------7-------7-------------7-------7---|
|--------------------------------------------|--------------------------------------------|
|-----0-5--------5----5-----0-5-------5----5-|-----0-5--------5----5-----0-5-------5----5-|
|--------------------------------------------|--------------------------------------------|


   S  S S  S  S  S S  S  S  S S  S  S S  E      S  S S  S  S  S S  S E    S  S S  S  S  S
|------------14--------------------14--------|------------14--------------------------------|
|--------------------------------------------|----------------------------------------------|
|-12-12---12----12---12-12-12---12------12---|-12-12---12----12---12-----12-12---12-12-12---|
|--------------------------------------------|----------------------------------------------|
|
|  S  S S  S  S  S S  S  S  S S  S  S S  S S    S  S S  S  S  S S  S S S  S  S S  S  S  S
|--------------------------------------------|----------------------------------------------|
|----------7-------7-------------7-------7---|----------7-------7------------7-------7------|
|--------------------------------------------|----------------------------------------------|
|-----0-5--------5----5-----0-5-------5----5-|-----0-5--------5----5---0--5-------5-----5---|


   E  E  E     E     E  E  E     E       E  E  E     E     E  E  E     E
|-------14----------------14----------|-------14----------------14----------|
|-------------------------------------|-------------------------------------|
|-12-12-------12----12-12-------12----|-12-12-------12----12-12-------12----|
|-------------------------------------|-------------------------------------|
|
| Gtr III
|  Q     S  S  S  S  Q     S  S  S  S    Q     S  S  S  S  Q     S  S  S  S
|-------12----------------12----------|-------12----------------12----------|
|----------14-12-14----------14-12-14-|----------14-12-14----------14-12-14-|
|-------------------------------------|-------------------------------------|
|-------------------------------------|-------------------------------------|


   E  E  E     E     E  E  E     E       E  E  E     S  S S  S  S S  S  S  S  S
|-------14----------------14----------|-------14---------------14---14-14-14-14-|
|-------------------------------------|-----------------------------------------|
|-12-12-------12----12-12-------12----|-12-12-------12-12---12------------------|
|-------------------------------------|-----------------------------------------|
|
|  Q     S  S  S  S  Q     S  S  S  S    Q     S  S  S  S Q          S  S  S  S
|-------12----------------12----------|-------12--------------------12----------|
|----------14-12-14----------14-12-14-|----------14-12-14--------------14-12-14-|
|-------------------------------------|-----------------------------------------|
|-------------------------------------|-----------------------------------------|


   E  E  E     E     E  E  E     E       E  E  E     E     E  E  E     E
|-------14----------------14----------|-------14----------------14----------|
|-------------------------------------|-------------------------------------|
|-12-12-------12----12-12-------12----|-12-12-------12----12-12-------12----|
|-------------------------------------|-------------------------------------|
|
|  Q     S  S  S  S  Q     S  S  S  S    Q     S  S  S  S  Q     S  S  S  S
|-------12----------------12----------|-------12----------------12----------|
|----------14-12-14----------14-12-14-|----------14-12-14----------14-12-14-|
|-------------------------------------|-------------------------------------|
|-------------------------------------|-------------------------------------|


   E  E  E     E     E  E  E     E       Q       H.
|-------14----------------14----------|-14------------------------------|
|-------------------------------------|---------------------------------|
|-12-12-------12----12-12-------12----|---------------------------------|
|-------------------------------------|---------------------------------|
|
|                                       Gtr I
|  Q     S  S  S  S  Q     S  S  S  S    S S S S E   S a S S  e e e.
|-------12----------------12----------|--7-9-9-7-9---7-7h9--------------|
|----------14-12-14----------14-12-14-|-----------------------9-7-------|
|-------------------------------------|---------------------------9-----|
|-------------------------------------|---------------------------------|


   Guitar Solo
     S  S S  S  S  S S  S  S  S S  S  S S  E      S  S S  S  S  S S  S  S  S S  S  S S  E
||-------------14--------------------14--------|------------14--------------------14--------|
||o--------------------------------------------|--------------------------------------------|
||o-12-12---12----12---12-12-12---12------12---|-12-12---12----12---12-12-12---12------12---|
||---------------------------------------------|--------------------------------------------|
|
|    S  S S  S  S  S S  S  S  S S  S  S S  S S    S  S S  S  S  S S  S  S  S S  S  S S  S S
||---------------------------------------------|--------------------------------------------|
||o----------7-------7-------------7-------7---|----------7-------7-------------7-------7---|
||o--------------------------------------------|--------------------------------------------|
||------0-5--------5----5-----0-5-------5----5-|-----0-5--------5----5-----0-5-------5----5-|


   S  S S  S  S  S S  S  S  S S  S  S S  E      S  S S  S  S  S S  S E    S  S S  S  S  S    3x
|------------14--------------------14--------|------------14---------------------------------||
|--------------------------------------------|----------------------------------------------o||
|-12-12---12----12---12-12-12---12------12---|-12-12---12----12---12-----12-12---12-12-12---o||
|--------------------------------------------|-----------------------------------------------||
|
|  S  S S  S  S  S S  S  S  S S  S  S S  S S    S  S S  S  S  S S  S S S  S  S S  S  S  S    3x
|--------------------------------------------|-----------------------------------------------||
|----------7-------7-------------7-------7---|----------7-------7------------7-------7------o||
|--------------------------------------------|----------------------------------------------o||
|-----0-5--------5----5-----0-5-------5----5-|-----0-5--------5----5---0--5-------5-----5----||


   S  S S  S  S  S S  S  S  S S  S  S S  E
|------------14--------------------14------|
|------------------------------------------|
|-12-12---12----12---12-12-12---12------12-|
|------------------------------------------|
|
|  W
|------------------------------------------|
|------------------------------------------|
|------------------------------------------|
|--5---------------------------------------|


   S   S S  S  S  S S  S  S  S S  S  Q
|-------------14--------------------14---*|
|----------------------------------------*|
|-12--12---12----12---12-12-12---12-12---*|
|----------------------------------------*|
|
| +H.                                Q
|----------------------------------------*|
|----------------------------------------*|
|----------------------------------------*|
|-(5)------------------------------------*|



Duration Legend
---------------
W - whole; H - half; Q - quarter; E - 8th; S - 16th; T - 32nd; X - 64th; a - acciaccatura
+ - note tied to previous; . - note dotted; .. - note double dotted
Uncapitalized letters represent notes that are staccato (1/2 duration)
Irregular groupings are notated above the duration line
Duration letters will always appear directly above the note/fret number it represents the
duration for.  Duration letters with no fret number below them represent rests.  Multi-
bar rests are notated in the form Wxn, where n is the number of bars to rest for.  Low
melody durations appear below the staff

Tablature Legend
----------------
 h   - hammer-on
 p   - pull-off
 b   - bend
 pb  - pre-bend
 r   - bend release (if no number after the r, then release immediately)
 /\  - slide into or out of (from/to "nowhere")
 s   - legato slide
 S   - shift slide
 - natural harmonic
[n]  - artificial harmonic
n(n) - tapped harmonic
 ~   - vibrato
 tr  - trill
 T   - tap
 TP  - trem. picking
 PM  - palm muting
\n/  - tremolo bar dip; n = amount to dip
 \n  - tremolo bar down
 n/  - tremolo bar up
/n\  - tremolo bar inverted dip
 =   - hold bend; also acts as connecting device for hammers/pulls
 <> - volume swell (louder/softer)
 x   - on rhythm slash represents muted slash
 o   - on rhythm slash represents single note slash

Misc Legend
-----------
 |  - bar
||  - double bar
||o - repeat start
o|| - repeat end
*|  - double bar (ending)
 :  - bar (freetime)
 $  - Segno
 &  - Coda
Tempo markers -  = BPM(8/16=s8/s16), where s8 = swing 8ths, s16 = swing 16ths


            
            
Suggest correction
Creating personal tab
Creating personal tab
You can edit any tab online and save it as your Personal.

You can edit, replace or remove any tab part or add personal notes – all changes will be seen only by you.

Personal tabs can be accessed anytime from any device, even offline.
Learn more »
Give kudos to tab author, rate the tab!
1 2 3 4 5
comments
print report bad tab
guest
You may want to rate the tab now too:
select rating
Wanna post a correction for this tab? Suggest correction