Oops, an error
Loading. Please wait.
We have an official Fans tab made by UG professional guitarists. Check out the tab »
×
13,665 views 1 this week
3 commentsread comments
1 2 3 4 5
x 5
add to favorites
×
Save as Personal and add changes to this tab that will be seen only by you. Learn more ›
×
You can save this tab as Personal to edit and correct it or add notes. All changes will be seen only by you. Learn more »
launch autoscroll
font size
0
reset
guitar tuner
backing track
0:00
0:00
edit
Autoscroll
slow
fast
+/-
esc
set tempo
stop
Author
Difficulty
artist.KINGS OF LEON
bassist.JARED FOLLOWILL.
album.BECAUSE OF THE TIMES
tabbed by.ISAAC URLICH


THIS IS COMPLETELY ACCURATE ANY QUESTIONS MAIL ME AT isaacurlich@hotmail.com

intro

g-----------------------------------|
d-----------------------------------|
a7-7-7-7-7-7-7-7-7-7-7-7-7-7-7-7-7--| keep playing this over as much as needed
e-----------------------------------|


then play this when caleb sings (and all the bros.....)

g-9-9-99h109-9-9-99h109-----------|
d---------------------------------|
a7-7-7------7-7-7-----------------|
e---------------------------------|

listen for timing other than that its just as easy as that!
have fun with this one its a really sick beat..

            
            
Suggest correction
Creating personal tab
Creating personal tab
You can edit any tab online and save it as your Personal.

You can edit, replace or remove any tab part or add personal notes – all changes will be seen only by you.

Personal tabs can be accessed anytime from any device, even offline.
Learn more »
comments
print report bad tab
3 comments total.
0 reply
antroolez 920 Mar 19, 2007 07:13 AM

Ragoo Bass

G|-----------------------------------------------------------|
D|-----------------------------------------------------------|
A|-9------------------------9-----9/10/9---------------------|
E|---10---5----7--9--7/5------10-----------10----5-----------|

0 reply
antroolez 920 Apr 24, 2007 01:58 PM

'all the bros' bit....

G---9-9h8-9-----9-9h8-9------|
D----------------------------|
A-7----------7---------------|
E----------------------------|

and theres some part at the end u missed out too, other than that pretty gd

0 reply
prt1990 10 Aug 01, 2008 10:05 AM

changes at roughly 3.15, but i have no idea what to...

guest
You may want to rate the tab now too:
select rating
Wanna post a correction for this tab? Suggest correction