Oops, an error
Loading. Please wait.

My Third House bass

version 2
version 2

Whole song

2,523 views 9 this week
2 commentsread comments
1 2 3 4 5
x 3
add to favorites
×
Save as Personal and add changes to this tab that will be seen only by you. Learn more ›
×
You can save this tab as Personal to edit and correct it or add notes. All changes will be seen only by you. Learn more »
launch autoscroll
font size
0
reset
guitar tuner
edit
Autoscroll
slow
fast
+/-
esc
set tempo
stop
Author
-------------------------------------------------------------------------------
			     My Third House - Kings Of Leon
-------------------------------------------------------------------------------

Tabbed By : Doo
e-mail: Doomushey@yahoo.co.uk

Tuning: EADG


This song is the B-side to the On Call single.

I found the other bass tab for the this song didn't even come close to tabbing the 
part to this song (2:20 onwards)

Come in thick and fast at the beginning (If your fast enough pluck more notes on 
the 4th fret parts)

G|-------------------------------------------------------------------------|
D|-------------------------------------------------------------------------|
A|-------------------------------------------------------------------------|
E|-44444023444440234444402344444-------------------------------------------|

                                       Apologies if below looks confusing,
                                       But im trying to express the speed.
                                       If you break it down slowly you will
                                       see it is correct.

G|--------------------------------------9-------9-------9-------9----------|
D|------------------------------------9---9---9---9---9---9---9---9--------|
A|----------------2-----------------77-7-7-777-7-7-777-7-7-777-7-7-7-------|
E|-444440234444402-4444402344444023/---------------------------------------|


G|-------------------------------------------------------------------------|
D|-------------------------------------------------------------------------|
A|----------------2--------------------------------------------------------|
E|-444440234444402-4444402344444-------------------------------------------|

G|-----------------------------------9-------9-------9-------9-------------|
D|---------------------------------9---9---9---9---9---9---9---9-----------|
A|------------------------2------77-7-7-777-7-7-777-7-7-777-7-7-7----------|
E|-44444023444440234444402-44444/------------------------------------------|

G|-------------------------------------------------------------------------|
D|-------------------------------------------------------------------------|
A|----------------2--------------------------------------------------------|
E|-444440234444402-4444402344444-------------------------------------------|


CHORUS


G|--------------------------------------------------------------------------|
D|--------------------------------------------------------------------------|
A|-2---------1-----------------------------2-4-6\---------------------------|
E|---------------------2---------2-----2h4----------------------------------|

G|--------------------------------------------------|
D|---------------------4--------4-22-222-211-111-1--|
A|-2------6\-1--------------------------------------|
E|--------------------------------------------------|

Now straight back into the verse like you did before but slightly shorter.


Then back into the chorus again

G|---------------------------------------------------------------------------|
D|---------------------------------------------------------------------------|
A|-2---------1-----------------------------2-4-6\----------------------------|
E|---------------------2---------2-----2h4-----------------------------------|

G|---------------------------------------------------------------------------|
D|---------------------4--------4-22-222-211-111-1---------------------------|
A|-2------6\-1---------------------------------------------------------------|
E|---------------------------------------------------------------------------|


Now into the fun part..........


G|----1---4---8--------1---4---8\---1---4---8--------1---4---8\-------------|
D|--------------9-----------------------------9-----------------------------|
A|-22---2---6--------2---2---6----11--2---6--------2---2---6----------------|
E|--------------------------------------------------------------------------|

G|---------------------------------------|
D|---------------------------------------|
A|-------------------------------2-4h6\--|
E|-22-02022-------022-02022---2h4--------|


Then back into the fun part again until it fades out


I hope that helped,
Ive played it through many times and it sounds perfect, email me if you have any questions.


| /  slide up
| \  slide down
| h  hammer-on
| p  pull-off
| ~  vibrato
| +  harmonic
| x  Mute note
===============================================================================

            
            
Suggest correction
Creating personal tab
Creating personal tab
You can edit any tab online and save it as your Personal.

You can edit, replace or remove any tab part or add personal notes – all changes will be seen only by you.

Personal tabs can be accessed anytime from any device, even offline.
Learn more »
Give kudos to tab author, rate the tab!
1 2 3 4 5
comments
print report bad tab
2 comments total.
0 reply
Thunderbird_Fan 83 Jul 14, 2009 05:44 AM

Nice job man its alot better then version one, in fact its perrrrfect!

5 Stars

Keep up the good work

0 reply
duck doo 131 Jul 14, 2009 07:30 AM

I'm glad you appreciate it, it's a very under rated track i think :)

guest
You may want to rate the tab now too:
select rating
Wanna post a correction for this tab? Suggest correction