Oops, an error
Loading. Please wait.
We have an official Notion tab made by UG professional guitarists. Check out the tab »
×
12,134 views 6 this week
2 commentsread comments
1 2 3 4 5
x 5
add to favorites
×
Save as Personal and add changes to this tab that will be seen only by you. Learn more ›
×
You can save this tab as Personal to edit and correct it or add notes. All changes will be seen only by you. Learn more »
launch autoscroll
font size
0
reset
guitar tuner
edit
Autoscroll
slow
fast
+/-
esc
set tempo
stop
Author
Difficulty
Song- Notion
Band- Kings Of leon
Album- Only By The Night
Bassist- Jared Followill

(0:07)

G|-----------|
D|-----------|
A|-----------|
E|--0~-------|

(0:13)

G|------9----8----------9---8---------|
D|--------------9--7------------9--7--|
A|--777---77--77-7--77777--77--77-7---|    X2
E|------------------------------------|

(0:33)


G|--------------------------------------------------------------------------|
D|--141414141414141414141414141414141414141414141414141414141414141414141414/
A|--------------------------------------------------------------------------|
E|--------------------------------------------------------------------------|

(0:40)

G|-------------------------------------------------------------------|
D|-------------------------------------------------------------------|
A|--67777777777777777677777777777776777777777777777767777777777777777|
E|-------------------------------------------------------------------|

(0:54)

G|------9----8----------9---8---------|
D|--------------9--7------------9--7--|
A|--777---77--77-7--77777--77--77-7---|    X2
E|------------------------------------|

(1:14)

G|--------------------------------------------------------------------------|
D|--141414141414141414141414141414141414141414141414141414141414141414141414/
A|--------------------------------------------------------------------------|
E|--------------------------------------------------------------------------|

(1:20)

G|-------------------------------------------------------------------|
D|-------------------------------------------------------------------|
A|--67777777777777777677777777777776777777777777777767777777777777777|
E|-------------------------------------------------------------------|

(1:34)

G|------9----8-----------9---8--------|
D|--------------9--7------------9--7--|
A|--777---77--77-7--77777--77--77-7---|    X2
E|------------------------------------|

(2:01)

G|------9----8-----------9---8--------|
D|--------------9--7------------9--7--|
A|--777---77--77-7--77777--77--77-7---|    X2
E|------------------------------------|

(2:15)

G|------9----8-----------9---8--------|
D|--------------9--7------------9--7--|
A|--777---77--77-7--77777--77--77-7---|    X2
E|------------------------------------|

(2:27)

G|------9----8-----------9---8--------|
D|--------------9--7------------9--7--|
A|--777---77--77-7--77777--77--77-7---|    X2
E|------------------------------------|

(2:40)

G|------9----8-----------9---8--------|
D|--------------9--7------------9--7--|
A|--777---77--77-7--77777--77--77-7---|    
E|------------------------------------|

G|------9----8-----------9---8-----------|
D|--------------9--7------------9--7-9---|
A|--777---77--77-7--77777--77--77-7---7~-|    
E|---------------------------------------|


END

            
            
Suggest correction
Creating personal tab
Creating personal tab
You can edit any tab online and save it as your Personal.

You can edit, replace or remove any tab part or add personal notes – all changes will be seen only by you.

Personal tabs can be accessed anytime from any device, even offline.
Learn more »
comments
print report bad tab
2 comments total.
0 reply
giacobe1 41 Oct 03, 2010 05:20 PM

Sorry, i've made a small mistake.

G|------9----8-----------9---8--------|
D|--------------9--7------------9--7--|
A|--777---77--77-7--77777--77--77-7---|
E|------------------------------------|

It is actually...

G|------9----8-----------9---8---------|
D|--------------9--7-------------9--7--|
A|--777---77--77-7--77777--77--77-7----|
E|-------------------------------------|

My apoligies.
giacobe1

0 reply
Toxicblack 10 Oct 13, 2010 05:19 PM

This tab is beast!
Way correct giacobe1

guest
You may want to rate the tab now too:
select rating
Wanna post a correction for this tab? Suggest correction