Oops, an error
Loading. Please wait.
We have an official On Call tab made by UG professional guitarists. Check out the tab »
×
33,860 views 30 this week
1 commentread comment
1 2 3 4 5
x 24
add to favorites
×
Save as Personal and add changes to this tab that will be seen only by you. Learn more ›
×
You can save this tab as Personal to edit and correct it or add notes. All changes will be seen only by you. Learn more »
launch autoscroll
font size
0
reset
guitar tuner
backing track
0:00
0:00
edit
Autoscroll
slow
fast
+/-
esc
set tempo
stop
Author
This is my first tab.. The other tabs of this song are quite good but I decided 
to fill out the variations and whatever, I hope you like it.

Intro
                                        2x
G|---------------------------------------|
D|---------------------------------------|  
A|---------------------------------------|
E|3-3-3-3-3-0-2-3-7-7-7-7-7-0-00-2-------| 
                                        2x 
G|---------------------------------------|
D|---------------------------------------|  
A|----------------2-2-2-2-2--------------|
E|3-3-3-3-3-0-2-3-----------0-00-2-------| 


(Yes I know the 2nd fret on A is also the same note as the 7nd on E, but trust 
me, it sounds way more like the song this way)


Verse
                                        3x
G|---------------------------------------|
D|---------------------------------------|  
A|----------------2-2-2-2-2--------------|
E|3-3-3-3-3-0-2-3-----------0-00-2-------|  

G|---------------------------------------|
D|---------------------------------------|  
A|----------------2/14----/14-10-9-------|
E|3-3-3-3-3-0-2-3------------------------| 



Chorus

G|---------------------------------------|
D|--------------------------/12-9-5------|  
A|----------------2-2-2-2-2--------------|
E|3-3-3-3-3-0-2-3------------------------|  

G|---------------------------12-11-------|
D|---------------------------------------|  
A|----------------2-2-2-2-/10--9---------|
E|3-3-3-3-3-0-2-3------------------------|  


Verse 2


                                        3x
G|---------------------------------------|
D|---------------------------------------|  
A|----------------2-2-2-2-2--------------|
E|3-3-3-3-3-0-2-3-----------0-00-2-------|  

G|---------------------------------------|
D|---------------------------------------|  
A|----------------2/14----/14-10-9-------|
E|3-3-3-3-3-0-2-3------------------------| 




Chorus 2



G|---------------------------------------|
D|--------------------------/12-9-5------|  
A|----------------2-2-2-2-2--------------|
E|3-3-3-3-3-0-2-3------------------------|  

G|---------------------------------------|
D|---------------------------------------|  
A|----------------2-2-2-2-2-/14-10-9-----|
E|3-3-3-3-3-0-2-3------------------------| 


G|------------------------------12-11----|
D|---------------------------------------|  
A|10\----------------2-2-2-2-/10--9------|
E|---3-3-3-3-0-2-3-----------------------| 

G|------------------------------12-11----|
D|---------------------------------------|  
A|10\----------------2-2-2-2-/10--9------|
E|---3-3-3-3-0-2-3-----------------------|  


Solo
G|---------------------------------------|
D|---------------------------------------|
A|---------------------------------------|
E|3-3-3-3-3-3-3-3-3-3-3-3-3-3-3-3--------|

G|---------------------------------------|
D|---------------------------------------|
A|3-3-3-3-3-3-3-3-3-3-3-3-3-3-3/7--------|
E|---------------------------------------|


G|---------------------------------------|
D|---------------------------------------|
A|5-5-5-5-5-5-5-5-5-5-5-5-5-5/9-9--------|
E|---------------------------------------|


G|---------------------------------------|
D|---------------------------------------|
A|7-----7-----7-----7---9-7--------------|
E|--0-0---0-0---0-0---0------------------|


G|------------------------------------------------------------------------|
D|------------------------------------------------------------------------|
A|/10-10-10-10-10-10-10-10-10-10-10-10-10-10-10-10------------------------|
E|------------------------------------------------------------------------|


G|---------------------------------------|
D|---------------------------------------|
A|3-3-3-3-3-3-3-3-3-3-3-3-3-3/7-7--------|
E|---------------------------------------|


G|---------------------------------------|
D|---------------------------------------|
A|5-5-5-5-5-5-5-5-5-5-5-5-5-5-5/\--------|
E|---------------------------------------|


Outro



                                        2x
G|---------------------------------------|
D|---------------------------------------|  
A|---------------------------------------|
E|3-3-3-3-3-0-2-3-7-7-7-7-7-0-00-2-------| 


                                         
G|---------------------------------------|
D|---------------------------------------|  
A|----------------2-2-2-2-2--------------|
E|3-3-3-3-3-0-2-3-----------0-00-2-------| 

                                        4x
G|------------------------------12-11----|
D|---------------------------------------|  
A|10\----------------2-2-2-2-/10--9------|
E|---3-3-3-3-0-2-3-----------------------| 


G|---------------------------------------|
D|---------------------------------------|  
A|----------------22---------------------|
E|3-3-3-3-3-0-2-3------------------------| 



I hope you enjoy it and please rate!




| /  slide up
| \  slide down
| h  hammer-on
| p  pull-off
| ~  vibrato
| +  harmonic
| x  Mute note

            
            
Suggest correction
Creating personal tab
Creating personal tab
You can edit any tab online and save it as your Personal.

You can edit, replace or remove any tab part or add personal notes – all changes will be seen only by you.

Personal tabs can be accessed anytime from any device, even offline.
Learn more »
comments
print report bad tab
1 comment total.
0 reply
sallyy23 40 Aug 14, 2009 03:48 PM

great thanks :)

guest
You may want to rate the tab now too:
select rating
Wanna post a correction for this tab? Suggest correction