Oops, an error
Loading. Please wait.
We have an official Pistol Of Fire tab made by UG professional guitarists. Check out the tab »
×
5,930 views 3 this week
4 commentsread comments
1 2 3 4 5
x 7
add to favorites
×
Save as Personal and add changes to this tab that will be seen only by you. Learn more ›
×
You can save this tab as Personal to edit and correct it or add notes. All changes will be seen only by you. Learn more »
launch autoscroll
font size
0
reset
guitar tuner
edit
Autoscroll
slow
fast
+/-
esc
set tempo
stop
Author
Difficulty
Pistol Of Fire - Kings Of Leon

  Intro
  00:01 sec
 |------------------|
 |------------------|
 |--7~--------------|
 |------------------|
  Verse
  00:15secs
 |------9-----7-------------7--|
 |-------------------9---------|
 |--7-----7------7------7------|
 |-----------------------------|
  Chorus
  00:52 secs
 |----------------------------------|
 |----------------------------------|
 |-777-77--777-77-------------------|
 |-----------------555-55--333--33--|
  Guitar Solo/Outro
  01:49
 |-----------------------------------|
 |-99999999999999999999999999999999--|
 |-----------------------------------|
 |-----------------------------------|
  
 |-----9-----7-------------7---------|
 |------------------9----------------| X 7
 |-7-----7------7------7-------------|
 |-----------------------------------|

 |-----9-----7-------------------------|
 |------------------9/////-------------|
 |-7-----7------7------------7---------|
 |-------------------------------------|





            
            
Suggest correction
Creating personal tab
Creating personal tab
You can edit any tab online and save it as your Personal.

You can edit, replace or remove any tab part or add personal notes – all changes will be seen only by you.

Personal tabs can be accessed anytime from any device, even offline.
Learn more »
comments
print report bad tab
4 comments total. Showing first comments.
0 reply
Silverback92 10 Oct 09, 2007 11:49 AM

omg dude u need a lot of wrk with this...im a novice and i couldent play this shit...

+1 reply
twiggy118 10 Oct 21, 2007 02:25 PM

maybe thats why you couldnt play it becauase your a novice

its a good tab mainly!

0 reply
DomStables 294 Dec 03, 2008 06:01 AM

i agree silverback you do seem to have made yourself appear a fool... lol

a good solid tab, im going 4* :D

guest
You may want to rate the tab now too:
select rating
Wanna post a correction for this tab? Suggest correction