Oops, an error
Loading. Please wait.
We have an official Revelry tab made by UG professional guitarists. Check out the tab »
×
9,256 views 1 this week
5 commentsread comments
1 2 3 4 5
x 6
add to favorites
×
Save as Personal and add changes to this tab that will be seen only by you. Learn more ›
×
You can save this tab as Personal to edit and correct it or add notes. All changes will be seen only by you. Learn more »
launch autoscroll
font size
0
reset
guitar tuner
edit
Autoscroll
slow
fast
+/-
esc
set tempo
stop
Author
----------------------------------------------------------------------------
			     REVELRY - Kings Of Leon
----------------------------------------------------------------------------

Tabbed By : Gernt

Tuning: Standard

Verse 1
G|---------------------------------|
D|---------------------------------|
A|7-------9-------11-------9-------|
E|---------------------------------| x2 and slide the last 9 down at the end

G|------------------------|
D|------------------------|
A|------------------------|
E|5-------5-------77777777|

Chorus 
G|-----------161816------------161816-------------161816------------161816-|
D|-------1416--------------1416---------------1416--------------1416-------|
A|7--1416-----------9--1416-----------11--1416-----------9--1416-----------|
E|-------------------------------------------------------------------------|

Verse 2
G|------------------------------------|   
D|----9-------9--------11-------11----|  Listen in this section to pick up
A|7777-7777777-777-9999--9999999--999-|  the rhythm. mines all up the shit
E|------------------------------------|...

G|-----------------------------------------------------|
D|--------13---------------13-----------11-------11----|
A|11111111--111111-11111111--111111-9999--9999999--999-|
E|-----------------------------------------------------| x2

G|------------------------|
D|------------------------|
A|------------------------|
E|5-------5-------77777777|


G|-----------161816------------161816-------------161816------------161816-|
D|-------1416--------------1416---------------1416--------------1416-------|
A|7--1416-----------9--1416-----------11--1416-----------9--1416-----------|
E|-------------------------------------------------------------------------|

 Repeat this last chorus part until the end of the song. There is a little
 variation near the end (add in the 9,11,13 etc on the D string)listen and 
 you should be able to figure it out.

| /  slide up
| \  slide down
| h  hammer-on
| p  pull-off
| ~  vibrato
| +  harmonic
| x  Mute note
=============================================================================

            
            
Suggest correction
Creating personal tab
Creating personal tab
You can edit any tab online and save it as your Personal.

You can edit, replace or remove any tab part or add personal notes – all changes will be seen only by you.

Personal tabs can be accessed anytime from any device, even offline.
Learn more »
comments
print report bad tab
5 comments total. Showing first comments.
0 reply
Cal! 511 Dec 09, 2008 11:52 AM

i may be wrong, but this sound a bit better to me.
its easier too lol

Chorus
G|-----------131613------------131613-------------131613------------131613-|
D|-------1416--------------1416---------------1416--------------1416-------|
A|7--1416-----------9--1416-----------11--1416-----------9--1416-----------|
E|-------------------------------------------------------------------------|

other than that, good tab!

0 reply
BlocPartyFreak 186 Jul 10, 2009 10:29 PM

Doesn't the intro go like this?

Starts at 00:40
G|---------------------------------|
D|---------------------------------|
A|---------------------------------|
E|--7-------9-------11-------9-----|

0 reply
BlocPartyFreak 186 Jul 22, 2009 11:43 PM

Okay, I swear I'm going mental. What you see here ^^^ is what happens when you search up tabs late at night. What the hell was I thinking? Sorry. Your intro is perfectly correct. I'm sure that Cal! is correct with the chorus.

guest
You may want to rate the tab now too:
select rating
Wanna post a correction for this tab? Suggest correction