Oops, an error
Loading. Please wait.
We have an official Revelry tab made by UG professional guitarists. Check out the tab »
×
13,937 views 24 this week
5 commentsread comments
1 2 3 4 5
x 7
add to favorites
×
Save as Personal and add changes to this tab that will be seen only by you. Learn more ›
×
You can save this tab as Personal to edit and correct it or add notes. All changes will be seen only by you. Learn more »
launch autoscroll
font size
0
reset
guitar tuner
edit
Autoscroll
slow
fast
+/-
esc
set tempo
stop
Author
Revelry Bass Tab

“11” is eleven not two 1’s 
“99” is nine nine lol, you might struggle to find fret 99 :P
This is definately the way he plays the chorus, ive seen them live, none of this 13th 
malarky :P

Wait till 0:40, then…

Verse
G|------------------------------|
D|------------------------------|
A|-7------9------11------9------|
E|------------------------------|

G|-----------------------------------|
D|-----------------------------------|
A|-7------9------11------9\\\\\------|
E|-----------------------------------|

Pre Chorus
G|--------------------------|
D|--------------------------|
A|--------------------------|
E|-5------5------77--7--7--7|

Chorus
G|-------------------------16--|-------------------------16--|
D|----------------14-16/18---18|----------------14-16/18---18|
A|-7--77--7-14-16--------------|-9--99--9-14-16--------------|
E|-----------------------------|-----------------------------|

G|-----------------------------16--|-------------------------16--|
D|--------------------14-16/18---18|----------------14-16/18---18|
A|-11--1111--11-14-16--------------|-9--99--9-14-16--------------|
E|---------------------------------|-----------------------------|


Verse 2 X2
G|-------9--9---------9|------11—11--------11|
D|---------------------|---------------------|
A|-77--7---7--7-7--77--|-99--9---9--9-9--99--|
E|---------------------|---------------------|

G|---------13---13-----------13|------11—11--------11|
D|-----------------------------|---------------------|
A|-1111--11---11--11-11--1111--|-99--9---9--9-9--99--|
E|-----------------------------|---------------------|


Pre Chorus
G|--------------------------------------|
D|--------------------------------------|
A|--------------------------------------|
E|-5------------5------------77--7--7--7|


Chorus X6
G|-------------------------16--|-------------------------16----|
D|----------------14-16/18---18|----------------14-16/18---18--|
A|-7--77--7-14-16--------------|-9--99--9-14-16----------------|
E|-----------------------------|-------------------------------|

G|-----------------------------16--|-------------------------16--|
D|--------------------14-16/18---18|----------------14-16/18---18|
A|-11--1111--11-14-16--------------|-9--99--9-14-16--------------|
E|---------------------------------|-----------------------------|

Variation
G|18-16-------------------|
D|------18-16-14-16-14----|
A|---------------------16-|
E|------------------------| not quite right but it sounds fine :)

Ends On
G|-----------|
D|-----------|
A|-7---------|
E|-----------|


I’m pretty sure that’s right, although there is a variation in the verse and the timing 
than what I have put.  Thanks!

            
            
Suggest correction
Creating personal tab
Creating personal tab
You can edit any tab online and save it as your Personal.

You can edit, replace or remove any tab part or add personal notes – all changes will be seen only by you.

Personal tabs can be accessed anytime from any device, even offline.
Learn more »
comments
print report bad tab
5 comments total. Showing first comments.
0 reply
duck doo 131 Dec 23, 2008 11:12 AM

there are some slides in the main riff, but apart from that everything looks pretty much good. nice job!

0 reply
DomStables 294 Dec 27, 2008 11:38 PM

ty :) ill put in some slides from 16 to 18 on the D string in the chorus..

0 reply
stella the fell 10 Aug 15, 2009 05:07 AM

cool tab matey, tyvm.

guest
You may want to rate the tab now too:
select rating
Wanna post a correction for this tab? Suggest correction