Oops, an error
Loading. Please wait.
We have an official Revelry tab made by UG professional guitarists. Check out the tab »
×
17,439 views 1 this week
no commentswrite comment
1 2 3 4 5
x 16
add to favorites
×
Save as Personal and add changes to this tab that will be seen only by you. Learn more ›
×
You can save this tab as Personal to edit and correct it or add notes. All changes will be seen only by you. Learn more »
launch autoscroll
font size
0
reset
guitar tuner
edit
Autoscroll
slow
fast
+/-
esc
set tempo
stop
Author
Difficulty
I dont mind taking requests for bass tabs and will try my best to get 
them accurate, especially if the song is good and worth doing!
Just leave a message on my profile wall.

----------------------------------------------------------------------------
			     REVELRY - Kings Of Leon
----------------------------------------------------------------------------

Tabbed By : Callum Urquhart

Im pretty sure this is accurate, though Jared seems to improvise a little towards 
the end so im not sure about those parts.

Tuning: Standard

Verse 1
G|---------------------------------|
D|---------------------------------|
A|7-------9-------11-------9-------|
E|---------------------------------| x2 

G|------------------------|
D|------------------------|
A|------------------------|
E|5-------5-------77777777|

Chorus 
G|-----------131613------------131613-------------131613------------131613-|
D|-------1416--------------1416---------------1416--------------1416-------|
A|7--1416-----------9--1416-----------11--1416-----------9--1416-----------|
E|-------------------------------------------------------------------------|

Verse 2
G|----9-9-----9-9------11-11-----11-11---|   
D|---------------------------------------|  
A|7777-7-77777-7-7-9999--9--99999--9--9--|   
E|---------------------------------------|

G|--------13--13----------13--13-------11--11-----11-11--|
D|-------------------------------------------------------|
A|11111111--11--1111111111--11--11-9999--99--99999--9--9-|
E|-------------------------------------------------------| x2

G|------------------------|
D|------------------------|
A|------------------------|
E|5-------5-------77777777|

Not sure bout the last few parts of the last chorus,
think its a bit like this:

Seems to combine the verse and chorus...

G|---9-9-----------131613-----11-11-----------1316--|   
D|-------------1416-----------------------1416------|  
A|7-7-7-7--1416------------9-9--9--9--1416----------|   
E|--------------------------------------------------|

G|-----13--13------------131613-----11-11-----------131613--|   
D|-------------------1416-----------------------1416--------|  
A|11-11--11--11--1416------------9-9--9--9--1416------------|   
E|----------------------------------------------------------|

At the second to last part of the chorus, the last bit is a bit like this, maybe...

G|---9-9--1613---------------|  
D|------------1614--141614---| 
A|7-7-7-7---------16---------|  
E|---------------------------|

than back to the chorus above once more, and end on:

G|------------------|   
D|------------------|  
A|-9>>>>------------|   
E|------------------|

Thats pretty much it me thinks!

            
            
Suggest correction
Creating personal tab
Creating personal tab
You can edit any tab online and save it as your Personal.

You can edit, replace or remove any tab part or add personal notes – all changes will be seen only by you.

Personal tabs can be accessed anytime from any device, even offline.
Learn more »
comments
print report bad tab
guest
You may want to rate the tab now too:
select rating
Wanna post a correction for this tab? Suggest correction