Oops, an error
Loading. Please wait.
We have an official Revelry tab made by UG professional guitarists. Check out the tab »
×
4,356 views 1 this week
4 commentsread comments
1 2 3 4 5
x 3
add to favorites
×
Save as Personal and add changes to this tab that will be seen only by you. Learn more ›
×
You can save this tab as Personal to edit and correct it or add notes. All changes will be seen only by you. Learn more »
launch autoscroll
font size
0
reset
guitar tuner
edit
Autoscroll
slow
fast
+/-
esc
set tempo
stop
Author
KINGS OF LEON
Revelry
Tabbed by SINCEWHEN??

~Realized the other tab was missing bits and pieces;
 So I'm giving it a go; rating is appreciated.

Intro;      0:00 - 0:54
G|-------------------|
D|-------------------|
A|-------------------|
E|--0~--2~--4~--2~---|

First Verse;    0:54 - 1:07
G|-------------------------|
D|-------------------------|
A|--7~----9~----11~----9~--|
E|--0----------------------|

Pre-Chorus;    1:07-1:13
G|------------------------|
D|------------------------|
A|-------------5-5-5-5-5--|
E|--5~----5~--------------|

Chorus;     1:13 - 1:26
G|----------------------16-----|
D|-------------14h16--18--18---|
A|-7-7-7--14h16----------------|
E|-----------------------------|

G|----------------------16-----|
D|-------------14h16--18--18---|
A|-9-9-9--14h16----------------|
E|-----------------------------|

G|-------------------------16-----|
D|----------------14h16--18--18---|
A|-11-11-11--14h16----------------|
E|--------------------------------|

G|----------------------16-----|
D|-------------14h16--18--18---|
A|-9-9-9--14h16----------------|
E|-----------------------------|

Second Verse;      1:26 - 1:52   (w/ delay pedal)
G|---------9-9-------------11-11------------------13-13--------------11-11--|
D|--------------------------------------------------------------------------|
A|-7-7-7-7--7-7----9-9-9-9---9--9-----11-11-11-11---11-11----9-9-9-9---9--9-|
E|--------------------------------------------------------------------------|

Pre-Chorus;    1:52-1:59
G|------------------------|
D|------------------------|
A|-------------5-5-5-5-5--|
E|--5~----5~--------------|

Final chorus till the End;
G|----------------------16-----|
D|-------------14h16--18--18---|
A|-7-7-7--14h16----------------|
E|-----------------------------|

G|----------------------16-----|
D|-------------14h16--18--18---|
A|-9-9-9--14h16----------------|
E|-----------------------------|

G|-------------------------16-----|
D|----------------14h16--18--18---|
A|-11-11-11--14h16----------------|
E|--------------------------------|

G|----------------------16-----|
D|-------------14h16--18--18---|
A|-9-9-9--14h16----------------|
E|-----------------------------|

Basically keep repeating those riffs in the last chorus over and over till the songs 
and you can variate with adding the octaves used in the verses with delay pedal.

Thanks, enjoy.
Cheers.

            
            
Suggest correction
Creating personal tab
Creating personal tab
You can edit any tab online and save it as your Personal.

You can edit, replace or remove any tab part or add personal notes – all changes will be seen only by you.

Personal tabs can be accessed anytime from any device, even offline.
Learn more »
Give kudos to tab author, rate the tab!
1 2 3 4 5
comments
print report bad tab
4 comments total. Showing first comments.
+1 reply
sincewhen?? 152 Feb 19, 2009 01:21 AM

CORRECTING OWN TAB:
For the chorus parts; when it comes to the 14-16 fill.

G|----------------------16-----|
D|-------------14h16--18--18---|
A|-7-7-7--14h16----------------|
E|-----------------------------|

It's 18 and 16 instead of 16 and 14.
My bad; I was tired while writing it.

+1 reply
Joeskeppi 75 Feb 19, 2009 03:15 AM

I think you can correct the tab properly if you check in the My tabs part of your account :)

+1 reply
sincewhen?? 152 Feb 20, 2009 06:01 PM

Thanks mate.

guest
You may want to rate the tab now too:
select rating
Wanna post a correction for this tab? Suggest correction