Oops, an error
Loading. Please wait.

Spiral Staircase bass

version 1
version 1

Whole song

Interactive

4,399 views 1 this week
2 commentsread comments
1 2 3 4 5
x 3
add to favorites
×
Save as Personal and add changes to this tab that will be seen only by you. Learn more ›
×
You can save this tab as Personal to edit and correct it or add notes. All changes will be seen only by you. Learn more »
launch autoscroll
font size
0
reset
guitar tuner
edit
Autoscroll
slow
fast
+/-
esc
set tempo
stop
Author
-------------------------------------------------------------------------------
			     SONG NAME:sprial staircase - Band Name:kings of leon
-------------------------------------------------------------------------------

Tabbed By :ger
e-mail: gerredfox@hotmail.com

Tuning:standard eadg

00:15 end of guitar intro
G|-----|
D|-----|
A|-----|
E|1010-| ten not 1 and 0

pre verse
G|----------------|
D|------------777-|
A|----------------|
E|7-7/17\7-7-7----| x2

verse part 1 00:20
G|-------------------------------------------------------------------------|
D|-------------------------------------------------------------------------|
A|-------------------------------------------------------------------------|
E|7x7x7x-7x7x7x-7x7x7x-7x5-7x7x7x-7x7x7x-7x7x7x-7x5-2x2x2-2x2x2-0x0x0-0x0x0|

E-7x7x7x-55-7x7x7x-55 00:31
this is played as a kinda mid verse.its played in two parts.first part ends at "we can 
run"and second begins at "they all came to party"

verse part2 00:35
G|-----------------------------------------------------------------------------|
D|-----------------------------------------------------------------------------|
A|--------------------------------------(5)------------------------------------|
E|7x7x7x-7x7x7x-7x7x7x-7x5-7x7x7x-7x7x7x---7x7x7x-7x5-2x2x2-2x2x2-0x0x0-0x0x0--|

play that mid verse again here E-7x7x7x-55-7x7x7x-55 00:46

chorus 00:50

G|----------------|
D|------------777-|
A|----------------|
E|7-7/17\7-7-7----|x4

G|----------------------|
D|----------------------|
A|----------------------|
E|2x2x2-2x2x2-0x0x-1010-| ten not 1 and 0

G|----------------|
D|------------777-|
A|----------------|
E|7-7/17\7-7-7----|x2

second verse
G|-------------------------------------------------------------------------|
D|-------------------------------------------------------------------------|
A|-------------------------------------------------------------------------|
E|7x7x7x-7x7x7x-7x7x7x-7x5-7x7x7x-7x7x7x-7x7x7x-7x5-2x2x2-2x2x2-0x0x0-0x0x0|

E-7x7x7x-55-7x7x7x-55 play this midverse again but this leads into the interlude

interlude 01:20

G|------------|
D|------141414|
A|----14------|
E|\12---------|x3
                      12th and 14th frets here
G|1212------------|
D|-----1414-1212--|
A|--------------14|
E|----------------|

G|----------|
D|----------|
A|----------|
E|5\---5\---|

G|------------|
D|------141414|
A|----14------|
E|\12---------|x3
                      12th and 14th frets here
G|1212------------|
D|-----1414-1212--|
A|--------------14|
E|----------------|

G|----------|
D|----------|
A|----------|
E|5\---5\---|

Pause at 01:42 for the breakdown

01:53
G|-----|
D|-----|
A|-----|
E|1010-| ten not 1 and 0

this is essentially the chorus parts but slighty different structurally.play with this 
and ull hear.there is also a guitar solo but ull no wat to play along with that.its 
between the 2 pieces below and then leads to a fade out!u shud get it!

G|----------------|
D|------------777-|
A|----------------|
E|7-7/17\7-7-7----|x6

G|----------------------|
D|----------------------|
A|----------------------|
E|2x2x2-2x2x2-0x0x-1010-| ten not 1 and 0

thats it guys!any questions contact myself!thanks for checkin it out!

p.s. ut may need sum tweeking but not a lot!...........hopefully!


| /  slide up
| \  slide down
| h  hammer-on
| p  pull-off
| ~  vibrato
| +  harmonic
| x  Mute note
===============================================================================

            
            
Suggest correction
Creating personal tab
Creating personal tab
You can edit any tab online and save it as your Personal.

You can edit, replace or remove any tab part or add personal notes – all changes will be seen only by you.

Personal tabs can be accessed anytime from any device, even offline.
Learn more »
Give kudos to tab author, rate the tab!
1 2 3 4 5
comments
print report bad tab
2 comments total.
0 reply
REDFOX 200 Sep 27, 2008 04:30 PM

tabber here! makin a correction for that interlude. the middle and end bit are down as:

G|----------|
D|----------|
A|----------|
E|5\---5\---|

whereas the shud be

G|----------|
D|----------|
A|----------|
E|7\---7\---|

u guys probably figured it out. only corrected it just incase!

0 reply
riverwolf 30 Nov 12, 2009 06:51 AM

this tab is wrong but you're on the right track. check out my tab for it.

guest
You may want to rate the tab now too:
select rating
Wanna post a correction for this tab? Suggest correction