Oops, an error
Loading. Please wait.
We have an official The End tab made by UG professional guitarists. Check out the tab »
×
12,436 views 18 this week
2 commentsread comments
1 2 3 4 5
x 7
add to favorites
×
Save as Personal and add changes to this tab that will be seen only by you. Learn more ›
×
You can save this tab as Personal to edit and correct it or add notes. All changes will be seen only by you. Learn more »
launch autoscroll
font size
0
reset
guitar tuner
edit
Autoscroll
slow
fast
+/-
esc
set tempo
stop
Author
Difficulty
                            The End - Kings of Leon
Tuning: Standard (E A D G)

Intro/Chorus (11's, not 1's)
G|----------------|----------------|
D|----9--9---99--9|----9--9---99--9|
A|----------------|----------------|
E|7777-77-777--77-|7777-77-777--77-|

G|--------------------------------|---------------------------------|
D|---------13----13------1313---13|-------13----13------1313------13| X2
A|--------------------------------|---------------------------------|
E|/11111111--1111--111111----1111-|1111111--1111--111111----111111--|

Verse

G|--------------|--------------|------------------|------------------|
D|---9---9------|---9---9------|-----13-----13----|-----13-----13----| X2
A|--------------|--------------|------------------|------------------|
E|77--77--77----|77--77--77----|1111---1111---1111|1111---1111---1111|

Chorus
Verse
Chorus

Bridge
G ------------------------------|
D ------------------------------|
A ------------------------------|
E 7~-14-11~-14-16/7~-7/11-14-16-|

Verse
Chorus x2
Bridge and End.

            
            
Suggest correction
Creating personal tab
Creating personal tab
You can edit any tab online and save it as your Personal.

You can edit, replace or remove any tab part or add personal notes – all changes will be seen only by you.

Personal tabs can be accessed anytime from any device, even offline.
Learn more »
comments
print report bad tab
2 comments total.
0 reply
pavelardo 839 Feb 27, 2011 02:05 AM

Great tab, but last verse goes like that :
Verse
G|--------------|--------------|------------------|------------------|
D|---9---9------|---9---9------|-----13-----13----|-----13-----13----|
A|--------------|--------------|------------------|------------------|
E|77--77--77----|77--77--77----|1111---1111---1111|1111---1111---1111|

G|--------------|---------------|------------------|--------------------|
D|---9---9------|---9---9-------|-----13-----13----|-----13-----13------|
A|--------------|---------------|------------------|--------------------|
E|77--77--77----|77--77--77--5--|1111---1111---1111|1111---1111---1111\-|

0 reply
Niklaus_360 170 Feb 27, 2011 02:41 AM

Yeah, spot on. I realised after I'd submitted the tab that I was missing the slide from 5 to 11

guest
You may want to rate the tab now too:
select rating
Wanna post a correction for this tab? Suggest correction