Oops, an error
Loading. Please wait.
We have an official True Love Way tab made by UG professional guitarists. Check out the tab »
×
2,345 views 1 this week
no commentswrite comment
1 2 3 4 5
2 more votes to show rating
add to favorites
×
Save as Personal and add changes to this tab that will be seen only by you. Learn more ›
×
You can save this tab as Personal to edit and correct it or add notes. All changes will be seen only by you. Learn more »
launch autoscroll
font size
0
reset
guitar tuner
backing track
0:00
0:00
edit
Autoscroll
slow
fast
+/-
esc
set tempo
stop
 Okay, I couldnt find this song for bass ANYWHERE online and i really wanted
 to play this song with my band...now, as i play lead guitar and dont even
 own a bass guitar, this is pretty spot on...anyone who has a correction
 to make please feel more than welcome to let me know my mistake(s).
 Enjoy and rate!

Main Riff / INTRO


G----------------------------------------------------------------------|
D----------------------------------------------------------------------|
A----------------------------------------------------------------------|
E-10-10-10-10-10-10----10-10-10-10-10-10----7-7-7-7-7-7----7-7-7-7-7-7-|

G-----------------------------------------------------------|
D-----------------------------------------------------------|
A-----------------------------------------------------------|
E--3-3-3-3-3-3----3-3-3-3-3-3----7-7-7-7-7-7----7-7-7-7-7-7-|

VERSE

G-------------------------------------------------------------|
D-------------------------------------------------------------|  
A-------------------------------------------------------------|
E-10-10-10-10-10-10-10-10-10-10\7--7--7-7-7-7-7-7-7-7-7-7\3 3-|

THE ABOVE ISNT THE EXACT NUMBER, SHOULDNT BE HARD 2 WORK OUT THOUGH!


"We'd Be So....

G----------------------------------------------------------------------|
D----------------------------------------------------------------------|
A----------------------------------------------------------------------|
E-10-10-10-10-10-10----10-10-10-10-10-10----7-7-7-7-7-7----7-7-7-7-7-7-|

G-----------------------------------------------------------|
D-----------------------------------------------------------|
A-----------------------------------------------------------|
E--3-3-3-3-3-3----3-3-3-3-3-3----7-7-7-7-7-7----7-7-7-7-7-7-|


Bridge kinda thing

G---------------------------------|
D---------------------------------|
A---------------------------------|
E----7~~~--3~~~--5~~~--10~~~------|

DURING SOLO

G--------------------------------------------------|
D--------------------------------------------------|
A--------------------------------------------------|
E--10-10-10-10-10-10-10-10-10-10-10-10-10-10-10-10-|

G--------------------------------------------------|
D--------------------------------------------------|
A--------------------------------------------------|
E--7-7-7-7-7-7-7-7-7-7-7-7-7-7-7-7-----------------|

G--------------------------------------------------|
D--------------------------------------------------|
A--------------------------------------------------|
E--3-3-3-3-3-3-3-3-3-3-3-3-3-3-3-3-----------------|

G--------------------------------------------------|
D--------------------------------------------------|
A--------------------------------------------------|
E--7-7-7-7-7-7-7-7-7-7-7-7-10-7-5-3----------------|  <<< ALL THAT 3 TIMES

SOLO ENDS

OUTRO

G---------------------------------|
D---------------------------------|
A---------------------------------| <<< THAT 2 TIMES
E----10~~~--7~~~--3~~~--7~~~------|
_______________________________________________________________
Compliments of Skid Marc

            
            
Suggest correction
Creating personal tab
Creating personal tab
You can edit any tab online and save it as your Personal.

You can edit, replace or remove any tab part or add personal notes – all changes will be seen only by you.

Personal tabs can be accessed anytime from any device, even offline.
Learn more »
Give kudos to tab author, rate the tab!
1 2 3 4 5
comments
print report bad tab
guest
Wanna post a correction for this tab? Suggest correction