Oops, an error
Loading. Please wait.
We have an official Use Somebody tab made by UG professional guitarists. Check out the tab »
×
266,155 views 87 this week
16 commentsread comments
1 2 3 4 5
x 35
add to favorites
×
Save as Personal and add changes to this tab that will be seen only by you. Learn more ›
×
You can save this tab as Personal to edit and correct it or add notes. All changes will be seen only by you. Learn more »
launch autoscroll
font size
0
reset
guitar tuner
backing track
0:00
0:00
edit
Autoscroll
slow
fast
+/-
esc
set tempo
stop
Author
G|------------------------------------|
D|------------------------------------|
A|-33333333---------------------------|
E|---------00000000-1111111100001111--|
You can play around a bit with the 1's and 0's.

G|------------------------------------|
D|------------------------------------|
A|-00000000-33333333------------------|
E|-------------------1111111100011101-|


G|---------5---------------------------|
D|-------5-----------------------------|
A|-33333-------------------------------|
E|-----------0000000-1-11111-1-1-1-1---|

G|---------5---------------------------|
D|-------5-----------------------------|
A|-33333-------------------------------|
E|-----------0000000-1-11111-1-11111---|

G|------------------------------------|
D|------------------------------------|
A|-00000000-33333333------------------| x2
E|-------------------1111111111111111-|

G|-------|
D|-------|
A|-------| 
E|-1/- 8/|
Slides are kind of random


[Bridge]

G|--------------------------|
D|--------------------------|
A|-5555555------------------|
E|---------222222222--------|


G|----5--5----------------------------|
D|------------2--2-----3--3---3---3---|
A|-333-33-3---------------------------|
E|---------000-00-0-111-11-111-111-1--|

G|----2--2-----5--5-------------------|
D|----------------------3--3---3---3--|
A|-000-00-0-333-33-3------------------|
E|-------------------111-11-111-111-1-|



************************************

| /  Slide up

************************************

            
            
Suggest correction
Creating personal tab
Creating personal tab
You can edit any tab online and save it as your Personal.

You can edit, replace or remove any tab part or add personal notes – all changes will be seen only by you.

Personal tabs can be accessed anytime from any device, even offline.
Learn more »
comments
print report bad tab
16 comments total. Showing first comments. show 1 bad comment
+8 reply
Xren 550 Oct 13, 2008 12:42 AM

Yeah it's not that hard but these tabs are primarily for people who can't figure them out/just started bassing.

And to be hounest, this is about all he does live.

+5 reply
benblakeway14 10 Nov 02, 2008 09:50 AM

There's clearly not more bass in it that this, though.

He's got it all right. The notes are 100% and maybe for any newbies he could've put in the timing for the jumpy sounding bit in the second verse on the F but it's not like it's hard.

Jared plays all the C notes on the third fret A string by the way, he doesn't go up to the eight on the E :)

guest
You may want to rate the tab now too:
select rating
Wanna post a correction for this tab? Suggest correction