Oops, an error
Loading. Please wait.
We have an official Use Somebody tab made by UG professional guitarists. Check out the tab »
×
47,868 views 6 this week
2 commentsread comments
1 2 3 4 5
x 3
add to favorites
×
Save as Personal and add changes to this tab that will be seen only by you. Learn more ›
×
You can save this tab as Personal to edit and correct it or add notes. All changes will be seen only by you. Learn more »
launch autoscroll
font size
0
reset
how to read this tab
guitar tuner
backing track
0:00
0:00
edit
Autoscroll
slow
fast
+/-
esc
set tempo
stop
-------------------------------------------------------------------------------
                            USE SOMEBODY - KINGS OF LEON
-------------------------------------------------------------------------------
Tabbed by: Daniel
Email: daniel@intelligentvc.co.uk

There are a few versions already up here, but I thought this version sounded 
really nice using the capo on the fourth fret.

Be kind people - it's my first attempt and I'm new at this acoustic guitar thing. 

Tuning: Standard EADGBE / Capo on the fourth fret.

D = Downstroke / U = Upstroke

INTRO

e|-----3--3-3-3-3-3--3-3-3-3-3--3-3-3-3-3--3-3-3-3---------------------------|
B|-----3--3-3-3-3-3--3-3-3-3-3--3-3-3-3-3--3-3-3-3---------------------------|
G|---------------------------------------------------------------------------|
D|---------------------------2--2-2-2-2-2--2-2-2-2---------------------------|
A|-----2--2-2-2-2------------3--3-3-3-3-3--3-3-3-3---------------------------|
E|-----3--3-3-3-3-2--2-2-2-2-------------------------------------------------| x 2
       D  D U D U D  D U D U D  D U D U D  D U D U


e|-----3--3-3-3-3-3--3-3-3-3-3--3-3-3-3-3--3-3-3-3---------------------------|
B|-----3--3-3-3-3-3--3-3-3-3-3--3-3-3-3-3--3-3-3-3---------------------------|
G|---------------------------------------------------------------------------|
D|---------------------------2--2-2-2-2-2--2-2-2-2---------------------------|
A|-----2--2-2-2-2------------3--3-3-3-3-3--3-3-3-3---------------------------|
E|-----3--3-3-3-3-2--2-2-2-2-------------------------------------------------| 
       D  D U D U D  D U D U D  D U D U D  D U D U

       ooh - wa oh oh, ooh - wa oh oh oh....

e|-----3--3-3-3-3-3--3-3-3-3-3--3-3-3-3--------------------------------------|
B|-----3--3-3-3-3-3--3-3-3-3-3--3-3-3-3--------------------------------------|
G|---------------------------------------------------------------------------|
D|---------------------------2--2-2-2-2--------------------------------------|
A|-----2--2-2-2-2------------3--3-3-3-3--------------------------------------|
E|-----3--3-3-3-3-2--2-2-2-2-------------------------------------------------| 
Let ring till silent
       D  D U D U D  D U D U D  D U D U 

       ooh - wa oh oh, ooh - wa oh oh oh....


VERSE 1
(guitar comes in on the second syllable of the word around)

I've been running a-

e|-----3--3-3-3-3-3--3-3-3-3-3--3-3-3-3-3--3-3-3-3---------------------------|
B|-----3--3-3-3-3-3--3-3-3-3-3--3-3-3-3-3--3-3-3-3---------------------------|
G|---------------------------------------------------------------------------|
D|---------------------------2--2-2-2-2-2--2-2-2-2---------------------------|
A|-----2--2-2-2-2------------3--3-3-3-3-3--3-3-3-3---------------------------|
E|-----3--3-3-3-3-2--2-2-2-2-------------------------------------------------| 
       D  D U D U D  D U D U D  D U D U D  D U D U
       
       -round, always looking down at all I see
 
e|-----3--3-3-3-3-3--3-3-3-3-3--3-3-3-3--------------------------------------|
B|-----3--3-3-3-3-3--3-3-3-3-3--3-3-3-3--------------------------------------|
G|---------------------------------------------------------------------------|
D|---------------------------2--2-2-2-2--------------------------------------|
A|-----2--2-2-2-2------------3--3-3-3-3--------------------------------------|
E|-----3--3-3-3-3-2--2-2-2-2-------------------------------------------------| 
let ring till silent
       D  D U D U D  D U D U D  D U D U D  D U D U
       
       painted faces, fill the places I can't reach

(guitar comes in on the word use)

You know that I could-

e|-----3--3-3-3-3-3--3-3-3-3-3--3-3-3-3-3--3-3-3-3---------------------------|
B|-----3--3-3-3-3-3--3-3-3-3-3--3-3-3-3-3--3-3-3-3---------------------------|
G|---------------------------------------------------------------------------|
D|-----2--2-2-2-2------------2--2-2-2-2-2--2-2-2-2---------------------------|
A|-----2--2-2-2-2-2--2-2-2-2-3--3-3-3-3-3--3-3-3-3---------------------------|
E|----------------3--3-3-3-3-------------------------------------------------| 
let ring
       D  D U D U D  D U D U D  D U D U D  D U D U
       
      -use somebody - y

e|-----3--3-3-3-3-3--3-3-3-3-3--3-3-3-3-3--3-3-3-3---------------------------|
B|-----3--3-3-3-3-3--3-3-3-3-3--3-3-3-3-3--3-3-3-3---------------------------|
G|---------------------------------------------------------------------------|
D|-----2--2-2-2-2------------2--2-2-2-2-2--2-2-2-2---------------------------|
A|-----2--2-2-2-2-2--2-2-2-2-3--3-3-3-3-3--3-3-3-3---------------------------|
E|----------------3--3-3-3-3-------------------------------------------------| 
let ring
       D  D U D U D  D U D U D  D U D U D  D U D U
       
      You know that I could use somebody - y


VERSE 2

e|-----3--3-3-3-3-3--3-3-3-3-3--3-3-3-3-3--3-3-3-3---------------------------|
B|-----3--3-3-3-3-3--3-3-3-3-3--3-3-3-3-3--3-3-3-3---------------------------|
G|---------------------------------------------------------------------------|
D|---------------------------2--2-2-2-2-2--2-2-2-2---------------------------|
A|-----2--2-2-2-2------------3--3-3-3-3-3--3-3-3-3---------------------------|
E|-----3--3-3-3-3-2--2-2-2-2-------------------------------------------------| 
let ring
       D  D U D U D  D U D U D  D U D U D  D U D U
       
       someone like you, and all you know and how you speak
 
e|-----3--3-3-3-3-3--3-3-3-3-3--3-3-3-3--------------------------------------|
B|-----3--3-3-3-3-3--3-3-3-3-3--3-3-3-3--------------------------------------|
G|---------------------------------------------------------------------------|
D|---------------------------2--2-2-2-2--------------------------------------|
A|-----2--2-2-2-2------------3--3-3-3-3--------------------------------------|
E|-----3--3-3-3-3-2--2-2-2-2-------------------------------------------------| 
let ring till silent
       D  D U D U D  D U D U D  D U D U D  D U D U
       
       countless lovers, under covers on the street

(guitar comes in on the word use)

You know that I could-

e|-----3--3-3-3-3-3--3-3-3-3-3--3-3-3-3-3--3-3-3-3---------------------------|
B|-----3--3-3-3-3-3--3-3-3-3-3--3-3-3-3-3--3-3-3-3---------------------------|
G|---------------------------------------------------------------------------|
D|-----2--2-2-2-2------------2--2-2-2-2-2--2-2-2-2---------------------------|
A|-----2--2-2-2-2-2--2-2-2-2-3--3-3-3-3-3--3-3-3-3---------------------------|
E|----------------3--3-3-3-3-------------------------------------------------| 
let ring
       D  D U D U D  D U D U D  D U D U D  D U D U
       
      -use somebody - y

(guitar comes in on the word use)

You know that I could-

e|-----3--3-3-3-3-3--3-3-3-3-3--3-3-3-3-3--3-3-3-3---------------------------|
B|-----3--3-3-3-3-3--3-3-3-3-3--3-3-3-3-3--3-3-3-3---------------------------|
G|---------------------------------------------------------------------------|
D|-----2--2-2-2-2------------2--2-2-2-2-2--2-2-2-2---------------------------|
A|-----2--2-2-2-2-2--2-2-2-2-3--3-3-3-3-3--3-3-3-3---------------------------|
E|----------------3--3-3-3-3-------------------------------------------------| 
let ring till silent
       D  D U D U D  D U D U D  D U D U D  D U D U
       
       you know that I could use somebody - y

CHORUS

(guitar comes in on the word you)

Someone like-

e|-----3--3-3-3-3-3--3-3-3-3-3--3-3-3-3-3--3-3-3-3---------------------------|
B|-----3--3-3-3-3-3--3-3-3-3-3--3-3-3-3-3--3-3-3-3---------------------------|
G|---------------------------------------------------------------------------|
D|---------------------------2--2-2-2-2-2--2-2-2-2---------------------------|
A|-----2--2-2-2-2------------3--3-3-3-3-3--3-3-3-3---------------------------|
E|-----3--3-3-3-3-2--2-2-2-2-------------------------------------------------|
 keep strumming in to verse 2
       D  D U D U D  D U D U D  D U D U D  D U D U

       -you      ooh - wa oh oh, ooh - wa oh oh oh....


That's it really, just repeat to the rest of the lyrics/song.



| /  slide up
| \  slide down
| h  hammer-on
| p  pull-off
| ~  vibrato
| +  harmonic
| x  Mute note
===============================================================================

            
            
Suggest correction
Creating personal tab
Creating personal tab
You can edit any tab online and save it as your Personal.

You can edit, replace or remove any tab part or add personal notes – all changes will be seen only by you.

Personal tabs can be accessed anytime from any device, even offline.
Learn more »
Give kudos to tab author, rate the tab!
1 2 3 4 5
comments
print report bad tab
2 comments total.
0 reply
Thunderbird_Fan 83 Jul 15, 2009 04:53 AM

WTF!

0 reply
tigercheerx3 10 Dec 17, 2010 03:27 PM

i think this tab is simple, and sounds great. good job!

guest
Wanna post a correction for this tab? Suggest correction