Oops, an error
Loading. Please wait.

Hey Pretty Girl tab

15,837 views 21 this week
2 commentsread comments
1 2 3 4 5
x 8
add to favorites
×
Save as Personal and add changes to this tab that will be seen only by you. Learn more ›
×
You can save this tab as Personal to edit and correct it or add notes. All changes will be seen only by you. Learn more »
launch autoscroll
font size
0
reset
how to read this tab
guitar tuner
edit
Autoscroll
slow
fast
+/-
esc
set tempo
stop
This is an amazingly written song. Simple yet full of emotion. This particular version 
is heard during an acoustic performance for 98.7 KUPL and Bing and can be found on 
youtube @ http://www.youtube.com/watch?v=zIbPOmho5Hk.

Tuning is 1/2 step down with drop C# on the low E
Watch/listen to video for timing...

Verses:

     Hey pretty girl won't you look my way...
D#|---------------------------------------|
A#|----3--------3--------3---------3------|
F#|--2---2-2--2---2-2--2---2-2--2----2-2--|
C#|--0--------0--------0--------0---------|
G#|--0--------0--------0--------0---------|
C#|--0--------0--------0--------0---------|

       Love is in the air tonight...
D#|---------------------------------------|
A#|----3--------3--------3---------3------|
F#|--2---2-2--2---2-2--2---2-2--2----2-2--|
C#|--0--------0--------0--------0---------|
G#|--2--------2--------2--------2---------|
C#|--0--------0--------0--------0---------|

    Bet you could make this ol'boys day...
D#|---------------------------------------|
A#|----3--------2------3---------3--------|
F#|--2---2-2----0------0-0-------0-0------|
C#|--2------------------------------------|
G#|--0------------------------------------|
C#|--0--------4---5--5-----5--5-----------|

   Hey pretty girl won't you look my way...
D#|---------------------------------------|
A#|----3---------3-------3---------3------|
F#|----0-0-----2-------2---2-2--2----2-2--|
C#|------------2-------0--------0---------|
G#|------------0-------0--------0---------|
C#|--5---------0-------0--------0---------|


*Riff 1*
D#|---------------------------------------|
A#|------3----2--3-------3---------3------|
F#|--2-----2--0--0-----2---2-2--2----2-2--|
C#|--0-----------------0--------0---------|
G#|--0^2---------------0--------0---------|
C#|-----------4--5-----0--------0---------|

Chorus:
The chorus is a variation of picking and strumming the following...

    Life's a long and winding ride...
D#|-----------------------------------|
A#|----3------2------3---------3------|
F#|--2---2-2--0----2---2-2--2----2-2--|
C#|--2--------0----0--------0---------|
G#|--0-------------0--------0---------|
C#|--0--------4----0--------0---------|

   Better have the right one by your side...
D#|------------------------------|
A#|--2-2----2----3-3---3--3------|
F#|--0-0----0----0-0---2--2------|
C#|--0------0----0-----0---------|
G#|--------------------0---------|
C#|--4------4----5-----0---------|

   And happiness don't drag its' feet...
D#|------------------------|
A#|--3-3--2---3-3----------|
F#|--2-2--0---2-2----------|
C#|--0----0---0------------|
G#|--3--------2------------|
C#|--0----4---0------------|

   Time moves faster than you think...
D#|-------------------------------|
A#|--3-3--3-3--3-3----------------|
F#|--0-0--0-0--0-0----------------|
C#|--0----0----0------------------|
G#|-------------------------------|
C#|--5----5----5------------------|

Lyrics:
Hey pretty girl, won't you look my way
Love's in the air tonight
You can bet you'll make this ol' boy's day
Hey pretty girl, won't you look my way

Hey pretty girl, can I have this dance
And the next one after that
Gonna make you mine there's a real good chance
Hey pretty girl, can I have this dance

*Riff 1*

Hey pretty girl, it feels so right
Just like it's meant to be
All wrapped up in my arms so tight
Hey pretty girl, it feels so right

Life's a long and winding ride
Better have the right one by your side
And happiness don't drag its feet
Time moves faster than you think

Hey pretty girl, I wanna take you home
My momma's gonna love you
She'll make me sleep on the couch, I know
But hey pretty girl, I wanna take you home

Hey pretty girl, lets build some dreams
And a house on a piece of land
We'll plant some roots and some apple trees
Hey pretty girl, lets build some dreams

Life's a long and winding ride
Better have the right one by your side
Happiness don't drag its feet
And time moves faster than you think

Hey pretty girl, you did so good
Our baby's got your eyes
And a fighters heart like I knew she would
Hey pretty girl, you did so good

Hey pretty girl when I see the light
And it's my time to go
I'm gonna thank the Lord for a real good life
A Pretty little girl and a beautiful wife

            
            
Suggest correction
Creating personal tab
Creating personal tab
You can edit any tab online and save it as your Personal.

You can edit, replace or remove any tab part or add personal notes – all changes will be seen only by you.

Personal tabs can be accessed anytime from any device, even offline.
Learn more »
comments
print report bad tab
2 comments total.
0 reply
AE25RR 60 Apr 30, 2014 07:36 PM

great job!

0 reply
vikto 10 Dec 06, 2015 08:35 AM

Am I missing something because this feels like shit?
This is much better https://www.youtube.com/watch?v=HgTnJQZ7_vQ

guest
You may want to rate the tab now too:
select rating
Wanna post a correction for this tab? Suggest correction