Oops, an error
Loading. Please wait.
37 views 1 this week
no commentswrite comment
1 2 3 4 5
3 more votes to show rating
add to favorites
×
Save as Personal and add changes to this tab that will be seen only by you. Learn more ›
×
You can save this tab as Personal to edit and correct it or add notes. All changes will be seen only by you. Learn more »
launch autoscroll
font size
0
reset
guitar tuner
edit
Autoscroll
slow
fast
+/-
esc
set tempo
stop
Difficulty
About this tab version
This is created to be a beginner's version close to the original yet still contains the main flourishs. Removed creative flourishs that can be replaced by the root note and still maintain melody integrity. No edits allowed to ensure the base version stays intact for beginners. Professinals please feel free to use this and create more improved versions closer to the original. Thank you. Was this info helpful? Yes No
-----------------------------------------------------------------
     Clear Rain - Kishida Kyoudan & The Akeboshi Rockets
-----------------------------------------------------------------


Tuning: Standard


Intro(0:00):
G|-----------------------------------------------------------------|
D|-----------------------------------------------------------------|
A|-0-0-0-0-0-0-0-0-2-2-2-2-2-2-2-2-4-4-4-4-4-4-4-4-6-6-6-7-7-7-7-7-|
E|-----------------------------------------------------------------|

G|-----------------------------------------------------------------|
D|-----------------------------------------------------------------|
A|-0-0-0-0-0-0-0-0-2-2-2-2-2-2-2-2-4-4-4-4-4-4-4-4-7-7-7-7-7-7-7---|
E|-----------------------------------------------------------------|

G|-----------------------------------------------------------------|
D|-----------------------------------------------------------------|
A|0--0-0-0-0-0-0-02--2-2-2-2-2-2-24--4-4-4-4-4-4-4-4-4-4-4-4-4-6-7-|
E|-----------------------------------------------------------------|

G|-----------------------------------------------------------------|
D|-----------------------------------------------------------------|
A|0--0-0-0-0-0-0-02--2-2-2-2-2-2-24--4-4-4-4-4-4-4-4-4-4-4-4-4-4-4-|
E|-----------------------------------------------------------------|



Verse 1(0:28):
G|-----------------------------------------------------------------|
D|-----------------------------------------------------------------|
A|-0-0-0-0-0-0-0-0-2-2-2-2-2-2-2-2-4-4-4-4-4-4-4-4-4-4-4-4-4-4-4-4-|
E|-----------------------------------------------------------------| (x4)



Pre-Chorus(0:54):
G|-----------------------------------------------------------------|
D|-----------------------------------------------------------------|
A|----------------0------------0---2-------------24------------4---|
E|-4-------------4-------------------------------------------------| 

G|-------------------------------------------------4-4-4-4-4-4-4-4-|
D|-----------------------------------------------------------------|
A|----------------0------------0---2-2-2-2-2-2-2-2-----------------|
E|-4-------------4-------------------------------------------------|



Chorus(1:08):
G|-----------------------------------------------------------------|
D|-----------------------------------------------------------------|
A|-0-0-0-0-0-0-0-0-2-2-2-2-2-2-2-2-4-4-4-4-4-4-4-4-----------------|
E|-------------------------------------------------4-4-4-4-4-4-4-4-|

G|-------------------------------------6---7-6---8---7-6-----------|
D|-----------------------------------------------------------------|
A|-0-0-0-0-0-0-0-0-2-2-2-2-2-2-2-2-4---------------------4---------|
E|-----------------------------------------------------------------|

G|-----------------------------------------------------------------|
D|-----------------------------------------------------------------|
A|-0-0-0-0-0-0-0-0-2-2-2-2-2-2-2-2-4-4-4-4-4-4-4-4-----------------|
E|-------------------------------------------------4-4-4-4-4-4-4-4-|

G|-----------------------------------------------------------------|
D|-----------------------------------------------------------------|
A|-0-0-0-0-0-0-0-0-2-2-2-2-2-2-2-2-4-4-4-4-4-4-4-4-7-7-7-7-7-7-7-7-|
E|-----------------------------------------------------------------|



Pre-Verse(1:34):
G|-----6---------6-----------------6-6-----------------------------|
D|-----------------------------------------------------------------|
A|-4-4-------4-------0-0-0-0-2-2-2-----4-----4--=4---0-0-0-0-2-2-2-|
E|-----------------------------------------------------------------|

G|-6-6-----------------------------6-6-----------------------------|
D|-----------------------------------------------------------------|
A|-----4-----4---4---0-0-0-0-2-2-2-----4-----4--=4---0-0-0-0-2-2-2-|
E|-----------------------------------------------------------------|



Verse 2(1:48):
G|-----------------------------------------------------------------|
D|-----------------------------------------------------------------|
A|-0-0-0-0-0-0-0-0-2-2-2-2-2-2-2-2-4-4-4-4-4-4-4-4-4-4-4-4-4-4-4-4-|
E|-----------------------------------------------------------------|

G|-----------------------------------------------------------------|
D|-----------------------------------------------------------------|
A|-0-0-0-0-0-0-0-0-2-2-2-2-2-2-2-2-4-4-4-4-4-4-4-4-6-6-6-7-7-7-7-7-|
E|-----------------------------------------------------------------| 



Pre-Chorus(2:01):
G|-----------------------------------------------------------------|
D|-----------------------------------------------------------------|
A|----------------0------------0---2-------------24------------4---|
E|-4-------------4-------------------------------------------------| 

G|-------------------------------------------------4-4-4-4-4-4-4-4-|
D|-----------------------------------------------------------------|
A|----------------0------------0---2-2-2-2-2-2-2-2-----------------|
E|-4-------------4-------------------------------------------------|



Chorus(2:15):
G|-----------------------------------------------------------------|
D|-----------------------------------------------------------------|
A|-0-0-0-0-0-0-0-0-2-2-2-2-2-2-2-2-4-4-4-4-4-4-4-4-----------------|
E|-------------------------------------------------4-4-4-4-4-4-4-4-|

G|-------------------------------------------------------------------|
D|-------------------------------------------------------------------|
A|-0-0-0-0-0-0-0-0-2-2-2-2-2-2-2-2-4-4-6-6-7-7-7-9-9-11-11-9-9-7-7-7-|
E|-------------------------------------------------------------------|

G|-----------------------------------------------------------------|
D|-----------------------------------------------------------------|
A|-0-0-0-0-0-0-0-0-2-2-2-2-2-2-2-2-4-4-4-4-4-4-4-4-----------------|
E|-------------------------------------------------4-4-4-4-4-4-4-4-|

G|-------------------------------------6---7-6---8---7-6-----------|
D|-----------------------------------------------------------------|
A|-0-0-0-0-0-0-0-0-2-2-2-2-2-2-2-2-4---------------------4---------|
E|-----------------------------------------------------------------|



Bridge(2:41):
G|-----------------------------------------------------------------|
D|-----------------------------------------------------------------|
A|-0-0-0-0-0-0-0-0-0-0-0-0-0-0-0-0-4-4-4-4-4-4-4-4-7-7-7-7-7-7-7-7-|
E|-----------------------------------------------------------------| (x2)

G|-----------------------------------------------------------------|
D|-----------------------------------------------------------------|
A|-0-0-0-0-0-0-0-0-2-2-2-2-2-2-2-2-4-4-4-4-4-4-4-4-4-4-4-4-4-4-4-4-|
E|-----------------------------------------------------------------| (x4)



Chorus(3:22):
G|-----------------------------------------------------------------|
D|-----------------------------------------------------------------|
A|-0---0---0---0---2---2---2---2---4---4---4---4-------------------|
E|-------------------------------------------------4---4---4---4---|

G|-----------------------------------------------------------------|
D|-----------------------------------------------------------------|
A|-0---0---0---0---2---2---2---2---x---------------------------\-/-|
E|-----------------------------------------------------------------|

G|-----------------------------------------------------------------|
D|-----------------------------------------------------------------|
A|-0-0-0-0-0-0-0-0-2-2-2-2-2-2-2-2-4-4-4-4-4-4-4-4-----------------|
E|-------------------------------------------------4-4-4-4-4-4-4-4-|

G|-----------------------------------------------------------------|
D|-----------------------------------------------------------------|
A|-0-0-0-0-0-0-0-0-2-2-2-2-2-2-2-2-4-4-4-4-4-4-4-4-7-7-7-7-7-7-7-7-|
E|-----------------------------------------------------------------|



Outro(3:49):
G|-----------------------------------------------------------------|
D|-----------------------------------------------------------------|
A|-0-0-0-0-0-0-0-02--2-2-2-2-2-2-24--4-4-4-4-4-4-4-4-4-4-4-4-4-6-7-|
E|-----------------------------------------------------------------|

G|-----------------------------------------------------------------|
D|-----------------------------------------------------------------|
A|0--0-0-0-0-0-0-02--2-2-2-2-2-2-24--4-4-4-4-4-4-46--6-67--7-7-----|
E|-----------------------------------------------------------------| (x2)

G|-----------------------------------------------------------------|
D|-----------------------------------------------------------------|
A|-0---------------------------------------------------------------|
E|-----------------------------------------------------------------|



| /  slide up
| \  slide down
| h  hammer-on
| p  pull-off
| ~  vibrato
| +  harmonic
| x  Mute note

            
            
Suggest correction
Creating personal tab
Creating personal tab
You can edit any tab online and save it as your Personal.

You can edit, replace or remove any tab part or add personal notes – all changes will be seen only by you.

Personal tabs can be accessed anytime from any device, even offline.
Learn more »
Give kudos to tab author, rate the tab!
1 2 3 4 5
comments
print report bad tab
guest
Wanna post a correction for this tab? Suggest correction