Oops, an error
Loading. Please wait.

Cold Gin tab

version 1
version 1

Whole song

by KISS
6,498 views 15 this week
no commentswrite comment
1 2 3 4 5
x 3
add to favorites
×
Save as Personal and add changes to this tab that will be seen only by you. Learn more ›
×
You can save this tab as Personal to edit and correct it or add notes. All changes will be seen only by you. Learn more »
launch autoscroll
font size
0
reset
how to read this tab
guitar tuner
backing track
0:00
0:00
edit
Autoscroll
slow
fast
+/-
esc
set tempo
stop
Cold Gin

Tune down 1/2 step

Intro

Eb|----------------------------------------------|
Bb|----------------------------------------------|
Gb|--9---9---7---7---7---7--7-/-9---9------------|
Db|--7---7---5---4---5---4--5-/-7---7------------|
Ab|--0---0---0---0---0---0--0-------0------------|
Eb|----------------------------------------------|

verses

Eb|-----------------------------|
Bb|--------------3---3----------|
Gb|--2---2-------0---0----------|
Db|--2---2-------0---0----------| repeat intro
Ab|--0---0-------0---0----------|
Eb|-----------------------------|


chorus

Eb|--------------------------------------------------|
Bb|--------------------------------------------------|
Gb|--------------------------------------------------|
Db|-9---9-------9---9--x--x--12---------9---9-\------|
Ab|-7---7-------7---7--x--x--10---12----7---7-\------|
Eb|-------------------------------10-----------------|

note: after the first chorus,
they vibrato the 3rd fret on the
fifth string (Ab) after the riff.
listen to the record you'll hear it.

ending for chorus (3 different fills)

   1st one
Eb|----------------------------------------------|
Bb|--12---12-------------------------------------|
Gb|--14^--14^------------------------------------|
Db|----------------------------------------------|
Ab|----------------------------------------------|
Eb|----------------------------------------------|

   2nd one
Eb|-12h15p12------------------------------------|
Bb|----------15----12h15p12---------------------|
Gb|-------------------------14----12h14p12------|
Db|----------------------------------------14---|
Ab|---------------------------------------------|
Eb|---------------------------------------------|

Eb|-----------------------------------|
Bb|-----------------------------------|
Gb|-----------------------------------|
Db|-12h14p12--------------------------|
Ab|----------14---12---12-------------|
Eb|-----------------------------------|

   3rd one
Eb|-----------12-------------12------------12----------|
Bb|------12-------------12------------12-------12--\---|
Gb|-13-------------14------------15--------------------|
Db|----------------------------------------------------|
Ab|----------------------------------------------------|
Eb|----------------------------------------------------|

interlude

Eb|-------------------------------------------|
Bb|-------------------------------------------|
Gb|---------5---5-----------------------------|
Db|-5---5---5---5-----------------------------|
Ab|-5---5---3---3---3--3-2-3-2---3--3-2-3-----|
Eb|-3---3---------------------------------1---|

Eb|-----------------------------------------------|
Bb|-----------------------------------------------|
Gb|---------5---5---------------------------------|
Db|-5---5---5---5---------------------------------|
Ab|-5---5---3---3---3-2-3-2-3-2-3-2-3-2-3-2-3-----|
Eb|-3---3-------------------------------------3---|

Eb|--------------------------------------------|
Bb|--------------------------------------------|
Gb|----------7---7-----------------------------|
Db|--7---7---7---7-----------------------------|
Ab|--7---7---5---5---5--5-4-5-4---5--5-4-5-----|
Eb|--5---5---------------------------------3---|

Eb|------------------------------------------------|
Bb|------------------------------------------------|
Gb|----------7---7---------------------------------|
Db|--7---7---7---7---------------------------------|
Ab|--7---7---5---5---5-4-5-4-5-4-5-4-5-4-5-4-5-----|
Eb|--5---5-------------------------------------3---|

Eb|-------------------------------------|
Bb|-------------------------------------|
Gb|-9---9----9----9------9--------------|
Db|-9---9----9h11---9h11---9------------|
Ab|-7---7-------------------------------|
Eb|-------------------------------------|

Eb|---------------------------|
Bb|---------------------------|
Gb|-9---7---6-----------------|
Db|-9---7---7-----------------|
Ab|-7---5---4-----------------|
Eb|---------------------------|

repeat intro to end song


/ = slide up
\ = slide down
h = hammer-on
p = pull-off
^ = bend

            
            
Suggest correction
Creating personal tab
Creating personal tab
You can edit any tab online and save it as your Personal.

You can edit, replace or remove any tab part or add personal notes – all changes will be seen only by you.

Personal tabs can be accessed anytime from any device, even offline.
Learn more »
Give kudos to tab author, rate the tab!
1 2 3 4 5
comments
print report bad tab
guest
Wanna post a correction for this tab? Suggest correction