Oops, an error
Loading. Please wait.

Forever tab

version 3
version 3

Whole song

Interactive

by KISS
5,160 views 3 this week
2 commentsread comments
1 2 3 4 5
3 more votes to show rating
add to favorites
×
Save as Personal and add changes to this tab that will be seen only by you. Learn more ›
×
You can save this tab as Personal to edit and correct it or add notes. All changes will be seen only by you. Learn more »
launch autoscroll
font size
0
reset
how to read this tab
guitar tuner
backing track
0:00
0:00
edit
Autoscroll
slow
fast
+/-
esc
set tempo
stop
Author
Eb|--------------------------------------------0------|
Bb|--------3-----------3-----------3--------3-----0---|
Gb|-----2-----2-----0-----0--------------2------------|
Db|--0--------------------------------0---------------|
Ab|--------------3--------------2---------------------|
Eb|--------------------------3------------------------|

Eb|--3--2--3--2-----0-----0---------------------------|
Bb|--0-----------------3--3---------------------------|
Gb|--------------2--------0---------------------------|
Db|---------------------------------------------------|
Ab|-----------------------3---------------------------|(2x)
I gotta tell you what I'm feelin' inside
I could lie to myself, but it's true
There's no denying when I look in your eyes
Girl I'm out of my head over you

Eb|--------------------------------------------0------|
Bb|--------1-----------3-----------3--------------3---|
Gb|-----------2-----------0-----0-----0-----2---------|
Db|-----2-----------0--------------------0------------|
Ab|--0-----------2-----------3------------------------|
Eb|---------------------------------------------------|

Eb|--------------------0-----------------------0------|
Bb|--------1--------3-----3--------3--------3-----3---|
Gb|--------------0--------------0--------2------------|
Db|-----2-----------------------------0---------------|
Ab|--0--------2--------------3------------------------|
Eb|---------------------------------------------------|

I lived so long believin' all love is blind
But everything about you is tellin' me this time it's

Eb|--3---3-3--2---2-2--2----0---0-0--0---0-0--0-------|
Bb|--3---3-3--3---3-3--3----0---0-0--1---1-1--1-------|
Gb|--0---0-0--2---2-2--2----0---0-0--0---0-0--0-------|
Db|--0---0-0--0---0-0--0----2---2-2--2---2-2--2-------|
Ab|-------------------------2---2-2--3---3-3--3-------|
Eb|--3---3-3----------------0---0-0-------------------|

Eb|--0---0-0--2---2-2--2----3---3-3--2---2-2--2-------|
Bb|--1---1-1--3---3-3--3----3---3-3--3---3-3--3-------|
Gb|--2---2-2--2---2-2--2----0---0-0--2---2-2--2-------|
Db|--2---2-2--0---0-0--0----0---0-0--0---0-0--0-------|
Ab|--0---0-0------------------------------------------|
Eb|-------------------------3---3-3-------------------|

Eb|--3---3-3--0---0-0--0----3---3-3--0---0-0--0-------|
Bb|--3---3-3--1---1-1--1----3---3-3--1---1-1--1-------|
Gb|--0---0-0--2---2-2--2----0---0-0--0---0-0--0-------|
Db|--0---0-0--2---2-2--2-------------2---2-2--2-------|
Ab|-----------0---0-0--0----2---2-2--3---3-3--3-------|
Eb|--3---3-3------------------------------------------|


End 1

Eb|--2------0-----------3--------2--------0-----------|
Bb|--3------3--------------3--------3--------3--------|
Gb|--2------0-----------------0--------0--------------|
Db|--0------2-----------------------------------------|
Ab|---------3-----------------------------------------|
Eb|---------------------------------------------------|

Forever
This time I know and there's no doubt in my mind
Forever

Eb|---------------------------------------------------|
Bb|---------------------------------------------------|
Gb|---------------------------------------------------|
Db|---------------------------------------------------|
Ab|---------0----------2------3----------5-------7----|
Eb|--3------------------------------------------------|

Eb|---------------------------------------------------|
Bb|--3-----------------3------3----------3-------3----|
Gb|--0------2----------0------0----------2-------0----|
Db|--0------2----------------------------0------------|
Ab|---------0----------2------3------------------3----|
Eb|--3------------------------------------------------|
Until my life is thru, girl I'll be lovin' you
Forever


Eb|--------------------------------------------0------|
Bb|--------3-----------3-----------3--------3-----0---|
Gb|-----2-----2-----0-----0--------------2------------|
Db|--0--------------------------------0---------------|
Ab|--------------3--------------2---------------------|
Eb|--------------------------3------------------------|

Eb|--3--2--3--2-----0-----0---------------------------|
Bb|--0-----------------3--3---------------------------|
Gb|--------------2--------0---------------------------|
Db|---------------------------------------------------|
Ab|-----------------------3---------------------------|(2x)
I hear the echo of a promise I made
When you're strong you can stand on your own
But those words grow distant as I look at your face
No, I don't wanna go it alone

Eb|--------------------------------------------0------|
Bb|--------1-----------3-----------3--------------3---|
Gb|-----------2-----------0-----0-----0-----2---------|
Db|-----2-----------0--------------------0------------|
Ab|--0-----------2-----------3------------------------|
Eb|---------------------------------------------------|

Eb|--------------------0-----------------------0------|
Bb|--------1--------3-----3--------3--------3-----3---|
Gb|--------------0--------------0--------2------------|
Db|-----2-----------------------------0---------------|
Ab|--0--------2--------------3------------------------|
Eb|---------------------------------------------------|
I never thought I'd lay my heart on the line
But everything about you is tellin' me this time it's

Eb|--3---3-3--2---2-2--2----0---0-0--0---0-0--0-------|
Bb|--3---3-3--3---3-3--3----0---0-0--1---1-1--1-------|
Gb|--0---0-0--2---2-2--2----0---0-0--0---0-0--0-------|
Db|--0---0-0--0---0-0--0----2---2-2--2---2-2--2-------|
Ab|-------------------------2---2-2--3---3-3--3-------|
Eb|--3---3-3----------------0---0-0-------------------|

Eb|--0---0-0--2---2-2--2----3---3-3--2---2-2--2-------|
Bb|--1---1-1--3---3-3--3----3---3-3--3---3-3--3-------|
Gb|--2---2-2--2---2-2--2----0---0-0--2---2-2--2-------|
Db|--2---2-2--0---0-0--0----0---0-0--0---0-0--0-------|
Ab|--0---0-0------------------------------------------|
Eb|-------------------------3---3-3-------------------|

Eb|--3---3-3--0---0-0--0----3---3-3--0---0-0--0-------|
Bb|--3---3-3--1---1-1--1----3---3-3--1---1-1--1-------|
Gb|--0---0-0--2---2-2--2----0---0-0--0---0-0--0-------|
Db|--0---0-0--2---2-2--2-------------2---2-2--2-------|
Ab|-----------0---0-0--0----2---2-2--3---3-3--3-------|
Eb|--3---3-3------------------------------------------|

Eb|--2------0---------0----0--0--0--0-----------------|
Bb|--3------1---------1----1--1--1--1-----------------|
Gb|--2------0---------0----0--0--0--0-----------------|
Db|--0------2---------2----2--2--2--2-----------------|
Ab|---------3---------3----3--3--3--3-----------------|
Eb|---------------------------------------------------|

Forever
This time I know and there's no doubt in my life
Forever

Eb|---------------------------------------------------|
Bb|---------------------------------------------------|
Gb|---------------------------------------------------|
Db|---------------------------------------------------|
Ab|---------0----------2------3----------5-------7----|
Eb|--3------------------------------------------------|

Eb|---------------------------------------------------|
Bb|--3-----------------3------3----------3-------3----|
Gb|--0------2----------0------0----------2-------0----|
Db|--0------2----------------------------0------------|
Ab|---------0----------2------3------------------3----|
Eb|--3------------------------------------------------|

Until my like is thru, Girl I'll be lovin' you
Forever

Eb|--------10---10-----10---10---10--8--7h8p7-------------------|
Bb|-------------------------------------------10---8-7-5----5-7-|
Gb|------7----7-----------7----7-------------------------7------|
Db|-------------------------------------------------------------|
Ab|-------------------------------------------------------------|
Db|--0----------------------------------------------------------|

Eb|-------------------------------------------------------------|
Bb|-/8--5-7-8-7-------------------------------------------------|
Gb|-----------------------------------------5*-------7*---------|
Db|-------------5~---4h5---4----------------5*-------7*---------|
Ab|----------------------7---5-7-7\5-3~-------------------------|
Db|-------------------------------------------------------------|

Eb|---------------------------7---------------------------------|
Bb|--7-8-10~-8-7h8p7---7-8-10---10-7h8p7---7--------------------|
Gb|------------------9-------------------9---7/9\7~-------------|
Db|--------------------------------------------------7h9p7------|
Ab|--------------------------------------------------------9-5/-|
Db|-------------------------------------------------------------|

Eb|---------------------------------12-14-15~-14-12-14-15-14-12-|
Bb|------------------------------12-----------------------------|
Gb|---------------------------12--------------------------------|
Db|-------------------------------------------------------------|
Ab|--7~---------------------------------------------------------|
Db|-------------------------------------------------------------|

Eb|------15--------14--------12--------10----8------------------|
Bb|-------------------------------------------------------------|
Gb|--12-----12\11-----11\9------9\-7------7\-5------------------|
Db|-------------------------------------------------------------|
Ab|-------------------------------------------------------------|
Db|-------------------------------------------------------------|
  |                                                             |
  |                                                             |
  |                                                             |
Eb|------19--------17--------15--------14----12-----------------|
Bb|-------------------------------------------------------------|
Gb|--16-----16\14-----14\12-----12\11-----11\9------------------|
Db|-------------------------------------------------------------|
Ab|-------------------------------------------------------------|
Db|-------------------------------------------------------------|

Eb|--------------------------------------------0------|
Bb|--------1-----------3-----------3--------------3---|
Gb|-----------2-----------0-----0-----0-----2---------|
Db|-----2-----------0--------------------0------------|
Ab|--0-----------2-----------3------------------------|
Eb|---------------------------------------------------|
    < - - - - - - - - - - 3x - - - - - - - - - - - >


Eb|--0---0---3----3--3-3-3--0--0-0-0--2------2--2-2---|
Bb|--1---1---3----3--3-3-3--1--1-1-1--3------3--3-3---|
Gb|--2---2---0----0--0-0-0--0--0-0-0--2------2--2-2---|
Db|--2---2------------------2--2-2-2--0------0--0-0---|
Ab|--0---0---2----2--2-2-2--3--3-3-3------------------|
Eb|---------------------------------------------------|

Eb|----2---2---2---2-2-2-2-2--------------------------|
Bb|----3---3---3---3-3-3-3-3--------------------------|
Gb|----2---2---2---2-2-2-2-2--------------------------|
Db|----0---0---0---0-0-0-0-0--------------------------|
Ab|---------------------------------------------------|
Eb|---------------------------------------------------|

I see my future when I look in your eyes
And it took your love to make my heart come alive
Cos I lived so long believin' all love is blind
But everything about you is tellin' me this time it's

Eb|--3---3-3--2---2-2--2----0---0-0--0---0-0--0-------|
Bb|--3---3-3--3---3-3--3----0---0-0--1---1-1--1-------|
Gb|--0---0-0--2---2-2--2----0---0-0--0---0-0--0-------|
Db|--0---0-0--0---0-0--0----2---2-2--2---2-2--2-------|
Ab|-------------------------2---2-2--3---3-3--3-------|
Eb|--3---3-3----------------0---0-0-------------------|

Eb|--0---0-0--2---2-2--2----3---3-3--2---2-2--2-------|
Bb|--1---1-1--3---3-3--3----3---3-3--3---3-3--3-------|
Gb|--2---2-2--2---2-2--2----0---0-0--2---2-2--2-------|
Db|--2---2-2--0---0-0--0----0---0-0--0---0-0--0-------|
Ab|--0---0-0------------------------------------------|
Eb|-------------------------3---3-3-------------------|

Eb|--3---3-3--0---0-0--0----3---3-3--0---0-0--0-------|
Bb|--3---3-3--1---1-1--1----3---3-3--1---1-1--1-------|
Gb|--0---0-0--2---2-2--2----0---0-0--0---0-0--0-------|
Db|--0---0-0--2---2-2--2-------------2---2-2--2-------|
Ab|-----------0---0-0--0----2---2-2--3---3-3--3-------|
Eb|--3---3-3------------------------------------------|

Forever
This time I know and there's no doubt in my mind
Forever

Eb|---------------------------------------------------|
Bb|---------------------------------------------------|
Gb|---------------------------------------------------|
Db|---------------------------------------------------|
Ab|---------0----------2------3----------5-------7----|
Eb|--3------------------------------------------------|

Eb|---------------------------------------------------|
Bb|--3-----------------3------3----------3-------3----|
Gb|--0------2----------0------0----------2-------0----|
Db|--0------2----------------------------0------------|
Ab|---------0----------2------3------------------3----|
Eb|--3------------------------------------------------|

Until my life is thru, girl I'll be lovin' you
Forever
it's
Eb|--3---3-3--2---2-2--2----0---0-0--0---0-0--0-------|
Bb|--3---3-3--3---3-3--3----0---0-0--1---1-1--1-------|
Gb|--0---0-0--2---2-2--2----0---0-0--0---0-0--0-------|
Db|--0---0-0--0---0-0--0----2---2-2--2---2-2--2-------|
Ab|-------------------------2---2-2--3---3-3--3-------|
Eb|--3---3-3----------------0---0-0-------------------|

Eb|--0---0-0--2---2-2--2----3---3-3--2---2-2--2-------|
Bb|--1---1-1--3---3-3--3----3---3-3--3---3-3--3-------|
Gb|--2---2-2--2---2-2--2----0---0-0--2---2-2--2-------|
Db|--2---2-2--0---0-0--0----0---0-0--0---0-0--0-------|
Ab|--0---0-0------------------------------------------|
Eb|-------------------------3---3-3-------------------|

Eb|--3---3-3--0---0-0--0----3---3-3--0---0-0--0-------|
Bb|--3---3-3--1---1-1--1----3---3-3--1---1-1--1-------|
Gb|--0---0-0--2---2-2--2----0---0-0--0---0-0--0-------|
Db|--0---0-0--2---2-2--2-------------2---2-2--2-------|
Ab|-----------0---0-0--0----2---2-2--3---3-3--3-------|
Eb|--3---3-3------------------------------------------|

Eb|--2------0-----------------------------------------|
Bb|--3------3-----------------------------------------|
Gb|--2------0-----------------------------------------|
Db|--0------------------------------------------------|
Ab|---------3-----------------------------------------|
Eb|---------------------------------------------------|

Forever
This time I know and there's no doubt in my mind
Forever
Eb|---------------------------------------------------|
Bb|---------------------------------------------------|
Gb|---------------------------------------------------|
Db|---------------------------------------------------|
Ab|---------0----------2------3----------5-------7----|
Eb|--3------------------------------------------------|

Rhythm Fig. 8b

Eb|---------------------------------------------------|
Bb|--3-----------------3------3----------3-------3----|
Gb|--0------2----------0------0----------2-------0----|
Db|--0------2----------------------------0------------|
Ab|---------0----------2------3------------------3----|
Eb|--3------------------------------------------------|

Until my life is thru, girl I'll be lovin' you
Forever

Eb|--3--2-----3--2-----3--2-----3--2------------------|
Bb|--------3--------3--------3--------3---------3-----|
Gb|--------------------------------------0------0-----|
Db|---------------------------------------------------|
Ab|-----------------------------------------3---3-----|
Eb|---------------------------------------------------|

            
            
Suggest correction
Creating personal tab
Creating personal tab
You can edit any tab online and save it as your Personal.

You can edit, replace or remove any tab part or add personal notes – all changes will be seen only by you.

Personal tabs can be accessed anytime from any device, even offline.
Learn more »
Give kudos to tab author, rate the tab!
1 2 3 4 5
comments
print report bad tab
2 comments total.
+2 reply
jr_wombat 114 Mar 26, 2008 10:05 AM

Just a note:I take no credit for this tab. All credit goes to Emil Ortenmark.

0 reply
Jjoel100 10 Dec 29, 2014 03:30 AM

Super tab. I'm love it! ;-)

guest
You may want to rate the tab now too:
select rating
Wanna post a correction for this tab? Suggest correction