Oops, an error
Loading. Please wait.
We have an official God Of Thunder tab made by UG professional guitarists. Check out the tab »
×
by KISS
8,956 views 3 this week
3 commentsread comments
1 2 3 4 5
x 5
add to favorites
×
Save as Personal and add changes to this tab that will be seen only by you. Learn more ›
×
You can save this tab as Personal to edit and correct it or add notes. All changes will be seen only by you. Learn more »
launch autoscroll
font size
0
reset
how to read this tab
guitar tuner
backing track
0:00
0:00
edit
Autoscroll
slow
fast
+/-
esc
set tempo
stop
Author
KISS-God of Thunder (Destroyer '76)

Tabbed by Crystal Kilgore

This is an easy song, one of the first songs I learned. The other tab was almost correct, this one

similar, no part of the other was used, but the solo is different, thanks to the 
KISS Asylum website,I

got the solo, give solo credit to him.(Side note: almost every KISS song in the '70s was in Eb or

"slack" tuning.)This was tabbed for the studio version, but it is also the live 
version, for those who

know it better than the one of Destroyer.

Tuning-Eb
Key:
\-slide down
/-slide up
b-bend
r-release bend
~-let ring
h-hammer on
p-pull off
**-artificial harmonic

Intro (after voices)
|----------------------------------------------------------|
|----------------------------------------------------------|
|------------------------------------------5---5--7-7--5-7-|
|--------------------------5b--------------5---5--7-7--5-7-|
|-----7---5-7------7---5-7--------7---5-7---7--------------|
|-0-0---7------0-0---7--------0-0---7----------------------|x2

|-----------------------------------------------------------|
|-----------------------------------------------------------|
|-----------------------------------------------------------|
|--------------------------5b-------------------------------|
|-----7---5-7------7---5-7--------7---5-7------7---5h7-5h7--|
|-0-0---7------0-0---7--------0-0---7------0-0---7----------|

Verse
|----------------------------------------------------------|
|----------------------------------------------------------|
|------------------------------------------5---5--7-7--5-7-|
|--------------------------5b--------------5---5--7-7--5-7-|
|-----7---5-7------7---5-7--------7---5-7---7--------------|
|-0-0---7------0-0---7--------0-0---7----------------------|

|-----------------------------------------------------------|
|-----------------------------------------------------------|
|-----------------------------------------------------------|
|--------------------------5b-------------------------------|
|-----7---5-7------7---5-7--------7---5-7------7---5h7-5h7--|
|-0-0---7------0-0---7--------0-0---7------0-0---7----------|

|----------------------------------------------------------|
|----------------------------------------------------------|
|------------------------------------------5---5--7-7--5-7-|
|--------------------------5b--------------5---5--7-7--5-7-|
|-----7---5-7------7---5-7--------7---5-7---7--------------|
|-0-0---7------0-0---7--------0-0---7----------------------|

|-----------------------------------------------------------|
|-----------------------------------------------------------|
|-----------------------------------------------------------|
|--------------------------5b-------------------------------|
|-----7---5-7------7---5-7--------7---5-7------7---5h7-5h7--|
|-0-0---7------0-0---7--------0-0---7------0-0---7----------|

Chorus
|----------------------|----------------------------------|---------------------|-------------------|
|----------------------|----------------------------------|---------------------|-------------------|
|-5-5--(4)(4)--7-7--9~-|-5-5-5-5--9-9-9-9--2-2-2-2-2-2--4-|-5-5-(4)(4)--7-7--9~-|-5-4-5-4-5-4--7----|
|-5-5---5--5---7-7--9~-|-5-5-5-5--9-9-9-9--2-2-2-2-2-2--4-|-5-5--5--5---7-7--9~-|-5-4-5-4-5-4--7----|
|-3-3---5--5---5-5--7~-|-3-3-3-3--7-7-7-7--0-0-0-0-0-0--2-|-3-3--5--5---5-5--7~-|-3-2-3-2-3-2--5(x8)|
|-------3--3-----------|----------------------------------|------3--3-----------|-------------------|

Post Chorus
|----------------------------------------------------------|
|----------------------------------------------------------|
|------------------------------------------5---5--7-7--5-7-|
|--------------------------5b--------------5---5--7-7--5-7-|
|-----7---5-7------7---5-7--------7---5-7---7--------------|
|-0-0---7------0-0---7--------0-0---7----------------------|

Verse 2
|----------------------------------------------------------|
|----------------------------------------------------------|
|------------------------------------------5---5--7-7--5-7-|
|--------------------------5b--------------5---5--7-7--5-7-|
|-----7---5-7------7---5-7--------7---5-7---7--------------|
|-0-0---7------0-0---7--------0-0---7----------------------|

|-----------------------------------------------------------|
|-----------------------------------------------------------|
|-----------------------------------------------------------|
|--------------------------5b-------------------------------|
|-----7---5-7------7---5-7--------7---5-7------7---5h7-5h7--|
|-0-0---7------0-0---7--------0-0---7------0-0---7----------|

Chorus
|----------------------|----------------------------------|---------------------|-------------------|
|----------------------|----------------------------------|---------------------|-------------------|
|-5-5--(4)(4)--7-7--9~-|-5-5-5-5--9-9-9-9--2-2-2-2-2-2--4-|-5-5-(4)(4)--7-7--9~-|-5-4-5-4-5-4--7----|
|-5-5---5--5---7-7--9~-|-5-5-5-5--9-9-9-9--2-2-2-2-2-2--4-|-5-5--5--5---7-7--9~-|-5-4-5-4-5-4--7----|
|-3-3---5--5---5-5--7~-|-3-3-3-3--7-7-7-7--0-0-0-0-0-0--2-|-3-3--5--5---5-5--7~-|-3-2-3-2-3-2--5(x8)|
|-------3--3-----------|----------------------------------|------3--3-----------|-------------------|

Post Chorus
|----------------------------------------------------------|
|----------------------------------------------------------|
|------------------------------------------5---5--7-7--5-7-|
|--------------------------5b--------------5---5--7-7--5-7-|
|-----7---5-7------7---5-7--------7---5-7---7--------------|
|-0-0---7------0-0---7--------0-0---7----------------------|

Solo
|----------------------------------------------------------|
|----------------------------------------------------------|
|------------------------------------------5---5--7-7--5-7-|
|--------------------------5b--------------5---5--7-7--5-7-|
|-----7---5-7------7---5-7--------7---5-7---7--------------|
|-0-0---7------0-0---7--------0-0---7----------------------|x3 (rhy.)

Solo
|-----------------------------------------------------|
|-----------------------------------------------------|
|-----------------------------------------------------|
|-----------------------------------------------------|
|-----------------------------------------------------|
|--6~-------7~------b-------r7~-----------------------|
                     (Feedback)

|---------------------------------------------------|
|----------------------------3b---3b---3b-r3--------|
|--3b^^---------3p2p0--3b---------------------4--0--|
|---------------------------------------------------|
|---------------------------------------------------|
|---------------------------------------------------|
                 < 7x >

|---------------------------------------------------|
|---------------------------------------14**--------|
|--2**-2**-2**-2**b---r2p0--------------------------|
|---------------------------2--0--------------------|
|---------------------------------------------------|
|---------------------------------------------------|

|---------------------------------------------------|
|--15b---15b---15b---15b-r15--12-15--15b~-----------|
|---------------------------------------------------|
|---------------------------------------------------|
|---------------------------------------------------|
|---------------------------------------------------|

|---------------------------12----------------------|
|--12h15p12-------------/12--------------12-15-12---|
|-----------14p12\11-----------14b----14b-----------|
|---------------------------------------------------|
|---------------------------------------------------|
|---------------------------------------------------|

|------------------------------------15b--15--------|
|--12-15--------12-15-12h15p12----12----------------|
|-----------14b----------------14-------------------|
|---------------------------------------------------|
|---------------------------------------------------|
|---------------------------------------------------|

|--12h15p12----12-------------------------------------|
|-----------15----15b--15b----------------------------|
|-----------------------------------------------------|
|-----------------------------------------------------|
|-----------------------------------------------------|
|-----------------------------------------------------|

Post Solo
|----------------------------------------------------------|
|----------------------------------------------------------|
|------------------------------------------5---5--7-7--5-7-|
|--------------------------5b--------------5---5--7-7--5-7-|
|-----7---5-7------7---5-7--------7---5-7---7--------------|
|-0-0---7------0-0---7--------0-0---7----------------------|


|-----------------------------------------------------------|
|-----------------------------------------------------------|
|-----------------------------------------------------------|
|--------------------------5b-------------------------------|
|-----7---5-7------7---5-7--------7---5-7------7---5h7-5h7--|
|-0-0---7------0-0---7--------0-0---7------0-0---7----------|

Repeat Chorus
Post Chorus

Outro
|----------------------------------------------------------|
|----------------------------------------------------------|
|------------------------------------------5---5--7-7--5-7-|
|--------------------------5b--------------5---5--7-7--5-7-|
|-----7---5-7------7---5-7--------7---5-7---7--------------|
|-0-0---7------0-0---7--------0-0---7----------------------|x2


|-------|
|-------|
|-9-9~--|
|-9-9~--|
|-7-7~--|
|-0-0~--|

            
            
Suggest correction
Creating personal tab
Creating personal tab
You can edit any tab online and save it as your Personal.

You can edit, replace or remove any tab part or add personal notes – all changes will be seen only by you.

Personal tabs can be accessed anytime from any device, even offline.
Learn more »
comments
print report bad tab
3 comments total.
0 reply
68lpjr 10 Oct 23, 2009 05:23 PM

nice job crystal, this is the best by far

0 reply
dyllan93 41 Feb 27, 2010 11:46 PM

it's good, but i think the solo's a little off

0 reply
slayerrox 10 May 24, 2013 07:25 PM

Great TAB!!!!

guest
You may want to rate the tab now too:
select rating
Wanna post a correction for this tab? Suggest correction