Oops, an error
Loading. Please wait.
We have an official Love Gun tab made by UG professional guitarists. Check out the tab »
×
by KISS
32,852 views 27 this week
4 commentsread comments
1 2 3 4 5
x 8
add to favorites
×
Save as Personal and add changes to this tab that will be seen only by you. Learn more ›
×
You can save this tab as Personal to edit and correct it or add notes. All changes will be seen only by you. Learn more »
launch autoscroll
font size
0
reset
guitar tuner
backing track
0:00
0:00
edit
Autoscroll
slow
fast
+/-
esc
set tempo
stop
Author
Difficulty
Unregistered
intermediate
G=Gb  D=Db  A=Ab  E=Eb

[Intro]
G|-----------------------------|-------------------------|
D|-14-14-14-14----14-14-14-14--|--14-14-14-14-14-14-14---|
A|-----------------------------|-------------------------|
E|-----------------------------|-------------------------|

G|------------|------------|----------------|----------------|
D|-2-2----2-2-|-x-5-4-2-0--|----------------|--------0h2--0--|
A|------2-----|------------|-3-3-----3-3----|-3-3--x---------|
E|------------|------------|-------3------3-|----------------|

[Verse]
G|---------------|-------------|---------------|--------------|---------|--------------|
D|2-2-----2-2----|-2-2--x-5-0--|-2-2----2-2----|-2-2--x-5-----|---------|-0h2--0-----0-|
A|------2------2-|-------------|------2------2-|--------------|-3-2-0---|-------0h3----|
E|---------------|-------------|---------------|------------3-|-------3-|--------------|

G|----------------|-------------|
D|-2-2-----2-2----|-2-2--x-5—0--|
A|-------2------2-|-------------|
E|----------------|-------------|

[Pre-Chorus]
G|--------------|----------------|---------------|-------------|
D|--------------|-0h2--0------0--|-2-2----2-2----|--2-2--x-5-0-|
A|-0-0-2-2-3--0-|--------0h3-----|-------2-----2-|-------------|
E|--------------|----------------|---------------|-------------|

G|--------------|----------------|-----------------------------|-----------------------|
D|--------------|--0h2--0-----0--|-14-14-14-14----14-14-14-14--|--14-14-14-14-14-14-14-|
A|-0-0-2-2-3--0-|----------0h3---|-----------------------------|-----------------------|
E|--------------|----------------|-----------------------------|-----------------------|

[Chorus]
G|------------|------------|----------------|----------------|
D|-2-2----2-2-|-x-5-4-2-0--|----------------|--------0h2--0--|
A|------2-----|------------|-3-3-----3-3----|-3-3--x---------|
E|------------|------------|-------3------3-|----------------|

[Verse]
G|---------------|-------------|---------------|--------------|---------|--------------|
D|2-2-----2-2----|-2-2--x-5-0--|-2-2----2-2----|-2-2--x-5-----|---------|-0h2--0-----0-|
A|------2------2-|-------------|------2------2-|--------------|-3-2-0---|-------0h3----|
E|---------------|-------------|---------------|------------3-|-------3-|--------------|

G|----------------|-------------|
D|-2-2-----2-2----|-2-2--x-5—0--|
A|-------2------2-|-------------|
E|----------------|-------------|

[Pre-Chorus]
G|--------------|----------------|---------------|-------------|
D|--------------|-0h2--0------0--|-2-2----2-2----|--2-2--x-5-0-|
A|-0-0-2-2-3--0-|--------0h3-----|-------2-----2-|-------------|
E|--------------|----------------|---------------|-------------|

G|--------------|----------------|-----------------------------|-----------------------|
D|--------------|--0h2--0-----0--|-14-14-14-14----14-14-14-14--|--14-14-14-14-14-14-14-|
A|-0-0-2-2-3--0-|----------0h3---|-----------------------------|-----------------------|
E|--------------|----------------|-----------------------------|-----------------------|

[Chorus]
G|------------|------------|----------------|----------------|
D|-2-2----2-2-|-x-5-4-2-0--|----------------|--------0h2--0--|
A|------2-----|------------|-3-3-----3-3----|-3-3--x---------|
E|------------|------------|-------3------3-|----------------|

G|-----------------------------|---------------------------------|
D|-14-14-14-14----14-14-14-14--|--14-14-14-14-14-14-14-14-14-14--| (x4)
A|-----------------------------|---------------------------------|
E|-----------------------------|---------------------------------|

[Chorus]
G|------------|------------|----------------|----------------|
D|-2-2----2-2-|-x-5-4-2-0--|----------------|--------0h2--0--|
A|------2-----|------------|-3-3-----3-3----|-3-3--x---------|
E|------------|------------|-------3------3-|----------------|

[Verse]
G|---------------|-------------|---------------|--------------|---------|--------------|
D|2-2-----2-2----|-2-2--x-5-0--|-2-2----2-2----|-2-2--x-5-----|---------|-0h2--0-----0-|
A|------2------2-|-------------|------2------2-|--------------|-3-2-0---|-------0h3----|
E|---------------|-------------|---------------|------------3-|-------3-|--------------|

G|----------------|-------------|
D|-2-2-----2-2----|-2-2--x-5—0--|
A|-------2------2-|-------------|
E|----------------|-------------|


************************************

| x  Dead note

************************************

            
            
Suggest correction
Creating personal tab
Creating personal tab
You can edit any tab online and save it as your Personal.

You can edit, replace or remove any tab part or add personal notes – all changes will be seen only by you.

Personal tabs can be accessed anytime from any device, even offline.
Learn more »
comments
print report bad tab
4 comments total. Showing first comments.
0 reply
Dr. Love 10 Oct 05, 2007 02:24 PM

wrong

0 reply
Jocke1995 60 Jan 04, 2009 06:03 AM

This sucks

0 reply
thorshammer69 10 Jan 11, 2009 02:31 PM

This doesn't suck!! I'ts the same as the other version, it's just different fingerings. Everything but the choice of 14-D instead of 9-G works well, and requires almost no hand movement. Overall good job.

guest
Wanna post a correction for this tab? Suggest correction