Oops, an error
Loading. Please wait.
We have an official Love Gun tab made by UG professional guitarists. Check out the tab »
×
by KISS
62,634 views 96 this week
3 commentsread comments
1 2 3 4 5
x 6
add to favorites
×
Save as Personal and add changes to this tab that will be seen only by you. Learn more ›
×
You can save this tab as Personal to edit and correct it or add notes. All changes will be seen only by you. Learn more »
launch autoscroll
font size
0
reset
how to read this tab
guitar tuner
backing track
0:00
0:00
edit
Autoscroll
slow
fast
+/-
esc
set tempo
stop
Author
Difficulty
This took a lot of work. I think this is the right way to play it. I might be wrong but 
and please rate!!! Feel free to correct me and e-mail me at sk8boi101@hotmail.com
                          Love Gun by Kiss

           
[Intro]

 e|-----------------------|--------------------|-----------------------|
 B|-----------------------|--------------------|-----------------------|
 G|-9-9-9-9-----9-9-9-9---|--9-9-9-9-9-9-9-----|----9------------------|
 D|-9-9-9-9-----9-9-9-9---|--9-9-9-9-9-9-9-----|----9------------------|
 A|-7-7-7-7-----7-7-7-7---|--7-7-7-7-7-7-7-----|----7------------------|
 E|-----------------------|--------------------|-----------------------|

 |e-----------------------|--------------------|-----------------------|
 |B-----------------------|--------------------|-----------------------|
 |G-7--9--7---------------|--------------------|-----------------------|
 |D-5--7--5--7------5-----|--------------------|-----7/9----7-----9----|
 |A----------5------3-----|--------------------|-----5/7----5-----7----|
 |E-----------------------|--------------------|------------------0----|
           

[First Verse]

 e|-----------------------|--------------------|-----------------------|
 B|-----------------------|--------------------|-----------------------|
 G|-----7-----------------|--------------------|-----7-----------------|
 D|-----5------7----------|---9----------------|-----5------------5----|
 A|------------5----------|---7----------------|------------5-----3----|
 E|-----------------------|--------------------|------------3----------|

 e|-----------------------|--------------------|-----------------------|
 B|-----------------------|--------------------|-----------------------|
 G|-----------------------|--------------------|-----------------------|
 D|-----5-----------------|-----7--------------|--------9--------------|
 A|-----3-----------------|-----5--------------|--------7--------------|
 E|-----------------------|--------------------|--------0--------------|

 e|-----------------------|--------------------|-----------------------|
 B|----8------------------|--------------------|----8------------------|
 G|----7------------------|----7---------------|----7------------------|
 D|----9------------------|----5------7--------|----9------------------|
 A|----7------------------|-----------5--------|----7------------------|
 E|----0------------------|--------------------|----0------------------|

 e|-----------------------|--------------------|-----------------------|
 B|-----------------------|--------------------|----8------------------|
 G|----7------------------|--------------------|----7------------------|
 D|----5------7-----------|---5-------------7--|----9------------------|
 A|-----------5-----------|---3-------------5--|----7------------------|
 E|-----------------------|--------------------|----0------------------|
       

[Pre-Chorus]

 e|-----------------------|--------------------|-----------------------|
 B|-----------------------|--------------------|----8------------------|
 G|-----------------------|----7---------------|----7------------------|
 D|----7------------------|----7---------------|----9------------------|
 A|----7------------------|----5---------------|----7------------------|
 E|----5------------------|--------------------|----0------------------|

 e|-----------------------|--------------------|-----------------------|
 B|-----------------------|--------------------|-----------------------|
 G|------------------7----|-9-9-9-9--9-9-9-9---|---9-9-9-9-9-9-9-------|
 D|----7-------------7----|-9-9-9-9--9-9-9-9---|---9-9-9-9-9-9-9-------|
 A|----7-------------5----|-7-7-7-7--7-7-7-7---|---7-7-7-7-7-7-7-------|
 E|----5------------------|--------------------|-----------------------|
       

[Chorus]

 e|-----------------------|--------------------|-----------------------|
 B|-----------------------|--------------------|-----------------------|
 G|----9------------------|-7--9--7------------|--------------------9--|
 D|----9------------------|-5--7--5--7--5------|------7/9---7-------9--|
 A|----7------------------|----------5--3------|------5/7---5-------7--|
 E|-----------------------|--------------------|-----------------------|

 e|-----------------------|--------------------|-----------------------|
 B|-----------------------|--------------------|-----------------------|
 G|--7--9--7--------------|--------------------|-----9-----------------|
 D|--5--7--5--7--5--------|-----7/9---7--------|-----9-----------------|
 A|-----------5--3--------|-----5/7---5--------|-----7-----------------|
 E|-----------------------|--------------------|-----------------------|

 e|-----------------------|--------------------|-----------------------|
 B|-----------------------|--------------------|-----------------------|
 G|--7--9--7--------------|--------------------|-----9-----------------|
 D|--5--7--5--7--5--------|-----7/9---7--------|-----9-----------------|
 A|-----------5--3--------|-----5/7---5--------|-----7-----------------|
 E|-----------------------|--------------------|-----------------------|

 e|-----------------------|--------------------|-----------------------|
 B|-----------------------|--------------------|-----------------------|
 G|--7--9--7--------------|--------------------|-----------------------|
 D|--5--7--5--7--5--------|-----7/9---7--------|-----------------------|
 A|-----------5--3--------|-----5/7---5--------|-----------------------|
 E|-----------------------|--------------------|-----------------------|

                    Repeat Verse 1 and the the Chorus
     

[Interlude]

 e|-----------------------|--------------------|-----------------------|
 B|-----------------------|--------------------|-----------------------|
 G|-----9--9--9--9--------|-----9--9--9--9-----|-9--9--9--9--9--9--9---|
 D|-----9--9--9--9--------|-----9--9--9--9-----|-9--9--9--9--9--9--9---|
 A|-----7--7--7--7--------|-----7--7--7--7-----|-7--7--7--7--7--7--7---|
 E|-----------------------|--------------------|-----------------------|
    

Lead Over Rhythm

 e|--------------------------------------------------------------------|
 B|----------------------------------------------------------15--15-17-|
 G|----------------------------------------12--12-14-12-14-16--16------|
 D|-------------------------12--12-14-12-14--14------------------------|
 A|-10--10-12-10-12-14-12-14--14---------------------------------------|
 E|---12---------------------------------------------------------------|

 e|---------------17--17-19-17--19-17--22-19--22-----------------------|
 B|-15-17-20-17-20--20--------20-----20--------------------------------|
 G|--------------------------------------------------------------------|
 D|--------------------------------------------------------------------|
 A|--------------------------------------------------------------------|
 E|--------------------------------------------------------------------|
    

[Chorus]

 e|-----^22~~~~~---------|--------^22----(22)--|-^14-^14-^14-^14-(14)-12----|
 B|----------------------|---------------------|-------------------------14-|
 G|----------------------|---------------------|----------------------------|
 D|----------------------|---------------------|----------------------------|
 A|----------------------|---------------------|----------------------------|
 E|----------------------|---------------------|----------------------------|
   

Solo Over Chorus

 e|--------12-------12-15-12-14-12--12------12-----12-15-12-14-12--12------|
 B|-----12-------12---------------15------12-----12--------------15--------|
 G|-^14------^14-----------------------^14----^14--------------------------|
 D|------------------------------------------------------------------------|
 A|------------------------------------------------------------------------|
 E|------------------------------------------------------------------------|

 e|--------12-------12-15-12-14-12--12------12-----12-15-12-14-12--12------|
 B|-----12-------12---------------15------12-----12--------------15--------|
 G|-^14------^14-----------------------^14----^14--------------------------|
 D|------------------------------------------------------------------------|
 A|------------------------------------------------------------------------|
 E|------------------------------------------------------------------------|

 e|--------12-------12-15-12-14-12--12------12-----12-15-12-14-12--12------|
 B|-----12-------12---------------15------12-----12--------------15--------|
 G|-^14------^14-----------------------^14----^14--------------------------|
 D|------------------------------------------------------------------------|
 A|------------------------------------------------------------------------|
 E|------------------------------------------------------------------------|

 e|--------12-------12-15-12-14-12--12-----12-----12-----12-----12---------|
 B|-----12-------12---------------15-----12-----12-----12-----12-----------|
 G|-^14------^14----------------------^14----^14----^14----^14-------------|
 D|------------------------------------------------------------------------|
 A|------------------------------------------------------------------------|
 E|------------------------------------------------------------------------|
    

[Outro]

 e|-----12-----------------------------------------------------------------|
 B|-------15-12-15-12--12--------------------------------------------------|
 G|------------------14--14-12-14-12-11------------------------------------|
 D|------------------------------------------------------------------------|
 A|------------------------------------------------------------------------|
 E|------------------------------------------------------------------------|

         Repeat Once and Fade



************************************

| (n)  Ghost note
| /    Slide up
| ~    Vibrato

************************************

            
            
Suggest correction
Creating personal tab
Creating personal tab
You can edit any tab online and save it as your Personal.

You can edit, replace or remove any tab part or add personal notes – all changes will be seen only by you.

Personal tabs can be accessed anytime from any device, even offline.
Learn more »
comments
print report bad tab
3 comments total.
0 reply
Iron_Man860 10 Aug 16, 2006 05:30 PM

tune down 1/2 step

or instead of ---
---
-9-
-9-
-7-
---
do---
---
-8-
-8-
-6-
---

0 reply
U2_freak 10 Jul 26, 2008 11:00 PM

great tab, especially the solo, but advanced......................?? more like super novice

0 reply
PiercedBand 841 Nov 21, 2014 03:13 PM

This tab is advanced for the solo,I'm sure, for any future viewers

guest
You may want to rate the tab now too:
select rating
Wanna post a correction for this tab? Suggest correction