Oops, an error
Loading. Please wait.

Morning tab

version 2
version 2

Whole song

Interactive

4,417 views 1 this week
2 commentsread comments
1 2 3 4 5
x 7
add to favorites
×
Save as Personal and add changes to this tab that will be seen only by you. Learn more ›
×
You can save this tab as Personal to edit and correct it or add notes. All changes will be seen only by you. Learn more »
launch autoscroll
font size
0
reset
how to read this tab
guitar tuner
edit
Autoscroll
slow
fast
+/-
esc
set tempo
stop
-------------------------------------------------------------------------------
                             Morning - Kisschasy
-------------------------------------------------------------------------------
Tabbed by: Stas Belkov
Email: stasbelkov@hotmail.com

Tuning: D A D G B E

                 Hey, this is my second tab, my first was 'Reminder (acoustic)', also by Kisschasy 

               Once again im pretty sure this tab is 100% right ;)
                   
Intro
e|---------------------------------------------------------------------------|
B|------8---6---------1------3------------------8-6-10-10/11-10-6------------|
G|-----------------------------------X3--then--------------------------------|
D|-------------3---------3-----0---------------------------------------------|
A|------6---5----5----0---0--1---1--------------6-5-8---8/10--8-5------------|
D|---------------------------------------------------------------------------|

Verse "Morning the sun wakes up..."           "i never told.." 
                              [Repeat for all verses] 
e|---------------------------------------------------------------------------|
B|------8---6---------1------3------------------8--10--11--6-----------------|
G|-----------------------------------X3--then--------------------------------|
D|-------------3---------3-----0---------------------------------------------|
A|------6---5----5----0---0--1---1--------------6---8--10--5-----------------|
D|---------------------------------------------------------------------------|

Chorus "you, I do.......I, I do..."    [Repeat for all choruses]

e|------------------------1--------------------------------------------------|
B|-----1--3--------------------------------1--3------------------------------|
G|----------------3--3p0----3---X3--then------------3-----------------------|
D|-----------3-----------------------------------3---------------------------|
A|-----0--1--------------------------------0--1------------------------------|
D|----------------1---------------------------------1------------------------|

Filler (same as intro) [starts in song at 00:55] followed by verse 2
e|---------------------------------------------------------------------------|
B|------8---6---------1------3-----------------------------------------------|
G|--------------------------------------X2-----------------------------------|
D|-------------3---------3-----0---------------------------------------------|
A|------6---5----5----0---0--1---1-------------------------------------------|
D|---------------------------------------------------------------------------|

Verse 2 (same as Verse 1)   "Sweet as a honey glaze..."
e|---------------------------------------------------------------------------|
B|------8---6---------1------3------------------8--10--11--6-----------------|
G|-----------------------------------X3--then--------------------------------|
D|-------------3---------3-----0---------------------------------------------|
A|------6---5----5----0---0--1---1--------------6---8--10--5-----------------|
D|---------------------------------------------------------------------------|

Chorus 2  "you, what id, id do..."
e|------------------------1--------------|------------------1----|-----------|
B|-----1--3------------------------------|-1--3------------------|-----------|
G|----------------3--3p0----3---X3--then-|----------3--3p0-----3-|--X4-->>---|
D|-----------3---------------------------|-------3---------------|-----------|
A|-----0--1------------------------------|-0--1------------------|-----------|
D|----------------1----------------------|----------1------------|-----------|


e|---------------------------------------------------------------------------|
B|---------------1---3--10--10/11--10--6-------------------------------------|
G|--->>----then--------------------------------------------------------------|
D|-------------------3-------------------------------------------------------|
A|---------------0---1--8----8/10---8--5-------------------------------------|
D|---------------------------------------------------------------------------|

Outro
e|-------------------------------------------------------------6-------------|
B|-----8--8-----8---7--7-----7----6--6h8--------3-------3---4-----4----------|
G|------------------------------------------------0---0--------------->>-----|
D|-----------8------------7---------------7---------0------------------------|
A|-----6--6---------6--6----------5--5----------2-----------3----------------|
D|---------------------------------------------------------------------------|

e|-------------3--1------------------1---------------------------------------|
B|----------1--1--1------1-----------3---------------------------------------|
G|------>>------------3----3p0-------3---------------------------------------|
D|------------------------------1----3---------------------------------------|
A|----------0------------------------1---------------------------------------|
D|--------------------1------------------------------------------------------|

          Great song, it was fun tabbing it and i hope you all enjoy it !

| /  slide up
| \  slide down
| h  hammer-on
| p  pull-off
| ~  vibrato
| +  harmonic
| x  Mute note
===============================================================================

            
            
Suggest correction
Creating personal tab
Creating personal tab
You can edit any tab online and save it as your Personal.

You can edit, replace or remove any tab part or add personal notes – all changes will be seen only by you.

Personal tabs can be accessed anytime from any device, even offline.
Learn more »
comments
print report bad tab
2 comments total.
0 reply
shelly_belly 245 Nov 24, 2006 05:26 PM

great tab! ive been waiting ages for a good tab for this song.

0 reply
titsmcgee852 40 Sep 27, 2007 04:02 AM

bloody good tab

guest
You may want to rate the tab now too:
select rating
Wanna post a correction for this tab? Suggest correction