Oops, an error
Loading. Please wait.

Girl Money bass

version 1
version 1

Whole song

Interactive

by Kix
225 views 1 this week
no commentswrite comment
1 2 3 4 5
3 more votes to show rating
add to favorites
×
Save as Personal and add changes to this tab that will be seen only by you. Learn more ›
×
You can save this tab as Personal to edit and correct it or add notes. All changes will be seen only by you. Learn more »
launch autoscroll
font size
0
reset
guitar tuner
edit
Autoscroll
slow
fast
+/-
esc
set tempo
stop
-----------------------------------------------------------------------------
                                  
                        Girl Money - Kix (BASS)
            
-----------------------------------------------------------------------------
Tabbed by: Scotto10

Tuning: down one half step

=============================================================================

Bass



     Q.     Q.     E  E     Q.     Q    E  E  E     Q.     Q    E  E  E   
G||----------------------|-----------------------|-----------------------|
D||----------------------|-----------------------|-----------------------|
A||----------------------|---------5----5--5--5--|-----------------------|
E||--5------5------5--5--|--0--------------------|--5------3----3--3--3--|


  Q.     Q    E  E  E     Q.     Q    E  E  E     Q.     Q    E  E  E   
-----------------------|-----------------------|-----------------------|
-----------------------|-----------------------|-----------------------|
---------5----5--5--5--|-----------------------|---------5----5--5--5--|
--0--------------------|--5------3----3--3--3--|--0--------------------|


  Q.     Q    E  E  E     Q.     Q    E  E  E     Q.     Q.     Q     
-----------------------|-----------------------|---------------------|
-----------------------|-----------------------|---------------------|
-----------------------|---------5----5--5--5--|---------------------|
--5------3----3--3--3--|--0--------------------|--5------5------5----|


  E  Q.     E  E    Q        E  Q    E  Q    Q       E  Q    E  Q    Q     
--------------------------|-----------------------|-----------------------|
--------------------------|-----------------------|-----------------------|
--------------------------|--2--------------------|----------5------------|
--L--5------5--5--/12\----|----------0------------|--5--------------------|


  E  Q    E  Q    Q       E  Q    E  Q    Q       E  Q    E  Q    Q     
-----------------------|-----------------------|-----------------------|
-----------------------|-----------------------|-----------------------|
--2--------------------|----------5------------|--2--------------------|
----------0------------|--5--------------------|----------0------------|


  E  Q    E  Q    Q       E  Q    E  Q    Q       E  Q    E  Q    E  E    
-----------------------|-----------------------|-------------------------|
-----------------------|-----------------------|-------------------------|
----------5------------|--2--------------------|----------5----------0h--|
--5--------------------|----------0------------|--5----------------------|


  E  Q    E  Q    Q       E  Q    E  Q    E  E      E  Q    E  Q    E  E    
-----------------------|-------------------------|-------------------------|
-----------------------|-------------------------|-------------------------|
--2--------------------|----------5----------0h--|--2----------------------|
----------0------------|--5----------------------|----------0----------3h--|


  E  Q    E  Q    E  E      E  Q    E  Q    Q       E  Q    E  Q    E  E    
-------------------------|-----------------------|-------------------------|
-------------------------|-----------------------|-------------------------|
----------5----------0h--|--2--------------------|----------5----------0h--|
--5----------------------|----------0------------|--5----------------------|


  E  Q    E  Q    Q       Q.     Q    E  E  E     Q.     Q    E  E  E   
-----------------------|-----------------------|-----------------------|
-----------------------|-----------------------|-----------------------|
--2--------------------|---------5----5--5--5--|---------5----5--5--5--|
----------0------------|--5--------------------|--0--------------------|


  Q.     Q    E  E  E     Q.     Q    E  E  E     Q.     Q    E  E  E   
-----------------------|-----------------------|-----------------------|
-----------------------|-----------------------|-----------------------|
-----------------------|---------5----5--5--5--|-----------------------|
--5------3----3--3--3--|--0--------------------|--5------3----3--3--3--|


  Q.     Q    E  E  E     Q.     Q    E  E  E     Q.     Q    E  E  E   
-----------------------|-----------------------|-----------------------|
-----------------------|-----------------------|-----------------------|
---------5----5--5--5--|-----------------------|---------5----5--5--5--|
--0--------------------|--5------3----3--3--3--|--0--------------------|


  Q.     Q.     Q       E  Q.     E  E  E  E     E  Q    E  Q    Q     
---------------------|------------------------|-----------------------|
---------------------|------------------------|-----------------------|
---------------------|------------------------|--2--------------------|
--5------5------5----|--L--5------5--5--5--5--|----------0------------|


  E  Q    E  Q    E  E      E  Q    E  Q    Q       E  Q    E  Q    E  E    
-------------------------|-----------------------|-------------------------|
-------------------------|-----------------------|-------------------------|
----------5----------0h--|--2--------------------|----------5----------0h--|
--5----------------------|----------0------------|--5----------------------|


  E  Q    E  Q    E  E      E  Q    E  Q    E  E      E  E  H        Q     
-------------------------|-------------------------|----------------------|
-------------------------|-------------------------|----------------------|
--2----------------------|----------5----------0h--|--2-------------------|
----------0----------3h--|--5----------------------|----------------------|


  W                   Q.     Q    E  E  E     Q.     Q    E  E  E   
-------------------|-----------------------|-----------------------|
-------------------|-----------------------|-----------------------|
-------------------|---------5----5--5--5--|-----------------------|
-------------------|--0--------------------|--5------3----3--3--3--|


  Q.     Q    E  E  E     Q.     Q    E  E  E     Q.     Q    E  E  E   
-----------------------|-----------------------|-----------------------|
-----------------------|-----------------------|-----------------------|
---------5----5--5--5--|-----------------------|---------5----5--5--5--|
--0--------------------|--5------3----3--3--3--|--0--------------------|


  Q.     Q    E  E  E     Q.     Q    E  E  E       E  E  E    E  E  E  E  E   
-----------------------|-----------------------|------------------------------|
-----------------------|-----------------------|------------------------------|
-----------------------|---------5----5--5--5--|------------------------------|
--5------3----3--3--3--|--0--------------------|--3g5--5--5--3g5--5--5--5--5--|


  E  E  E  Q    E  E  E     E  E  E  Q    E  E  E     E  E  E  Q    E  E  E   
-------------------------|-------------------------|-------------------------|
-------------------------|-------------------------|-------------------------|
-----------5----5--5--5--|-------------------------|-----------5----5--5--5--|
--0--3--4----------------|--5--5--5--3----3--3--3--|--0--3--4----------------|


  E  E  E  Q    E  E  E     E  E  E  Q    E  E  E     E  E  E  Q    E  E  E   
-------------------------|-------------------------|-------------------------|
-------------------------|-------------------------|-------------------------|
-------------------------|-----------5----5--5--5--|-------------------------|
--5--5--5--3----3--3--3--|--0--3--4----------------|--5--5--5--3----3--3--3--|


  E  E  E  Q    E  E  E     Q    E  E  E  E  E  E     E  E  E  E  E  E  E  E   
-------------------------|-------------------------|--------------------------|
-------------------------|-------------------------|--------------------------|
-----------5----5--5--5--|-------------------------|--------------------------|
--0--3--4----------------|--5----5--5--5--5--5--5--|--5--5--5--5--5--3--2--1--|


                    H        Q    E  E     E  E  E  E  E  E  E  E   
-----|-----|-----|----------------------|--------------------------|
-----|-----|-----|----------------------|--------------------------|
-----|-----|-----|----------------------|--------------------------|
-----|-----|-----|-------------------5--|--7--------0--------------|


  E  E  E  E  E  E  E  E     E  E  E  E  E  E  E  E   
--------------------------|--------------------------|
--------------------------|--------------------------|
-----------5--------------|--------------------------|
--5--------------------5--|--7--------0-----------3--|


  E  E  E  E  E  E  E  E     E  E  E  E  E  E  E  E   
--------------------------|--------------------------|
--------------------------|--------------------------|
-----------5--------------|--------------------------|
--5-----------------------|--7--------0--------------|


  E  E  E  E  E  E  E  E     E  E  E  E  E  E  E  E   
--------------------------|--------------------------|
--------------------------|--------------------------|
-----------5--------------|--------------------------|
--5--------------------5--|--7--------0--------------|


  E  E  E  E  E  E  E  E     E  E  E  Q    E  E  E     E  E  E  Q    E  E  E   
--------------------------|-------------------------|-------------------------|
--------------------------|-------------------------|-------------------------|
-----------5--5--5--5--5--|-------------------------|-----------5----5--5--5--|
--5--5--5-----------------|--7--7--7--0----0--0--0--|--5--5--5----------------|


  E  E  E  Q    E  E  E     E  E  E  Q    E  E  E     Q    E  Q    E  E  E   
-------------------------|-------------------------|------------------------|
-------------------------|-------------------------|------------------------|
-------------------------|-----3--4--5----L--------|------------------------|
--7--7--7--0----0--0--0--|--5----------------5--6--|--7----7--0----0--0--0--|


  Q    E  Q    E  E  E     Q    E  Q    E  E  E     E  E  E  E  E  E  E  E   
------------------------|------------------------|--------------------------|
------------------------|------------------------|--------------------------|
----------5----5--5--5--|------------------------|--------------------------|
--5----5----------------|--7----7--0----0--0--0--|--5--5--5--5--5--5--5--5--|


  E  E  E  E  E  E  E  E     Q.     Q    E  E  E     Q    E  Q    E  E  E   
--------------------------|-----------------------|------------------------|
--------------------------|-----------------------|------------------------|
--------------------------|---------5----5--5--5--|------------------------|
--5--5--5--5--5--5--5--5--|--0--------------------|--5----5--3----3--3--3--|


  Q.     Q    E  E  E     Q.     Q    E  E  E     Q.     Q    E  E  E   
-----------------------|-----------------------|-----------------------|
-----------------------|-----------------------|-----------------------|
---------5----5--5--5--|-----------------------|---------5----5--5--5--|
--0--------------------|--5------3----3--3--3--|--0--------------------|


  Q.     Q    E  E  E     Q.     Q    E  E  E     Q.     E  E  E  E  E   
-----------------------|-----------------------|------------------------|
-----------------------|-----------------------|------------------------|
-----------------------|---------5----5--5--5--|------------------------|
--5------3----3--3--3--|--0--------------------|--5------5--5--3--2--1--|


  E  E  E  Q    E  E  E     E  E  E  Q    E  E  E     E  E  E  Q    E  E  E   
-------------------------|-------------------------|-------------------------|
-------------------------|-------------------------|-------------------------|
-----------5----5--5--5--|-------------------------|-----------5----5--5--5--|
--0--3--4----------------|--5--5--5--3----3--3--3--|--0--3--4----------------|


  E  E  E  Q    E  E  E     E  E  E  Q    E  E  E     Q    E  Q    E  E  E   
-------------------------|-------------------------|------------------------|
-------------------------|-------------------------|------------------------|
-------------------------|-----------5----5--5--5--|------------------------|
--5--5--5--3----3--3--3--|--0--3--4----------------|--5----5--3----3--3--3--|


  E  E  E  Q    E  E  E     E  E  E  E  H                           
-------------------------|-----------------------|-----|-----|-----|
-------------------------|-----------------------|-----|-----|-----|
-----------5----5--5--5--|-----------------------|-----|-----|-----|
--0--3--4----------------|--5--5--3--5-----------|-----|-----|-----|


    Q.      H         E     Q.     H        E     Q.      E  E  E  Q     
-------------------------|---------------------|------------------------|
-------------------------|---------------------|------------------------|
-------------------------|---------------------|---------/7--5--5-------|
--/12------12---------L--|--0------0--------L--|--0----------------7----|


  E  E  E  E  E  E  E  E     E  Q     E  E  E  E  E   
--------------------------|--------------------------|
--------------------------|--------------------------|
--------------------------|----------/7--5--5--------|
--5--3--5--3--7--5--3--2--|--0--0--------------7--7--|


  E  E  E  E  E  E  E  E     E  Q     E  E  E  E  E   
--------------------------|--------------------------|
--------------------------|--------------------------|
-----------------------5--|----------/7--5--5--------|
--5--3--5--7--7--7--7-----|--0--0--------------7--7--|


  E  E  E  E  E  E  E  E     E  Q     E  E  E  E  E   
--------------------------|--------------------------|
--------------------------|--------------------------|
--------------------------|----------/7--5--5--------|
--5--3--5--3--7--5--3--2--|--0--0--------------7--7--|


  E  E  E  E  E  E  E  E     Q.      E  E  E  Q       E  E  E  E  E  E  E  E   
--------------------------|------------------------|--------------------------|
--------------------------|------------------------|--------------------------|
-----------------5--5--7--|---------/7--5--5-------|--------------------------|
--5--3--5--7--7-----------|--0----------------7----|--5--3--5--3--7--5--3--2--|


  E  Q     E  E  E  E  E     E  E  E  E  E  E  E  E     Q.      E  E  E  Q     
--------------------------|--------------------------|------------------------|
--------------------------|--------------------------|------------------------|
----------/7--5--5--------|--------------5--5--7--9--|---------/7--5--5-------|
--0--0--------------7--7--|--5--3--5--7--------------|--0----------------7----|


  E  E  E  E  E  E  E  E     Q.      E  E  E  Q       E  E  E  E  E  E  E  E   
--------------------------|------------------------|--------------------------|
--------------------------|------------------------|--------------------------|
--------------------------|---------/7--5--5-------|-----------------------5--|
--5--3--5--3--7--5--3--2--|--0----------------7----|--5--3--5--7--7--7--7-----|


  E  Q     E  E  E  E  E     E  E  E  E  E  E  E  E   
--------------------------|--------------------------|
--------------------------|--------------------------|
----------/7--5--5--------|--------------------------|
--0--0--------------7--7--|--5--3--5--3--7--5--3--2--|


  E  Q     E  E  E  E  E     E  E  E  E  E  E  E  E   
--------------------------|--------------------------|
--------------------------|--------------------------|
----------/7--5--5--------|--------------------------|
--0--0--------------7--7--|--5--3--5--3--7--5--3--2--|


  E  Q     E  E  E  E  E     E  E  E  E  E  E  E  E                            
--------------------------|--------------------------|-----|-----|-----|-----||
--------------------------|--------------------------|-----|-----|-----|-----||
----------/7--5--5--------|-----------------5--5--7--|-----|-----|-----|-----||
--0--0--------------7--7--|--5--3--5--7--7-----------|-----|-----|-----|-----||




Duration Legend
---------------
W - whole
H - half
Q - quarter
E - 8th
S - 16th
T - 32nd
X - 64th
. - note dotted
|-n-|  - n-tuplets


Tablature Legend
----------------
L - tied note
x - dead note
g - grace note
(n) - ghost note
> - accentuded note
NH - natural harmonic
AH - artificial harmonic
TH - tapped harmonic
SH - semi harmonic
PH - pitch harmonic
h - hammer on
p - pull off
b - bend
br - bendRelease
pb - preBend
pbr - preBendRelease
brb - bendReleaseBend
\n/ - tremolo bar dip
\n - tremolo bar dive
-/n - tremolo bar Release up
/n\ - tremolo bar inverted dip
/n - tremolo bar return
-\n - tremolo bar Release down
S - shift slide
s - legato slide
/ -  slide into from below or out of upwards
\ -  slide into from above or out of downwards
~ - vibrato
W - wide vibrato
tr - trill
TP - tremolo picking
T - tapping
S - slap
P - pop
< - fade in
^ - brush up
v - brush down

            
            
Suggest correction
Creating personal tab
Creating personal tab
You can edit any tab online and save it as your Personal.

You can edit, replace or remove any tab part or add personal notes – all changes will be seen only by you.

Personal tabs can be accessed anytime from any device, even offline.
Learn more »
Give kudos to tab author, rate the tab!
1 2 3 4 5
comments
print report bad tab
guest
You may want to rate the tab now too:
select rating
Wanna post a correction for this tab? Suggest correction