Oops, an error
Loading. Please wait.

No Ring Around Rosie bass

version 1
version 1

Whole song

  • Easy to follow, a few repeated lines, fully written out,.

Interactive

by Kix
61 views 1 this week
2 commentsread comments
1 2 3 4 5
3 more votes to show rating
add to favorites
×
Save as Personal and add changes to this tab that will be seen only by you. Learn more ›
×
You can save this tab as Personal to edit and correct it or add notes. All changes will be seen only by you. Learn more »
launch autoscroll
font size
0
reset
guitar tuner
edit
Autoscroll
slow
fast
+/-
esc
set tempo
stop
About this tab version
Easy to follow, a few repeated lines, fully written out,. Was this info helpful? Yes No
[Intro: enter at :08]

F#|-----------------|-----------------|-----------------|-----------------|
C#|-----------------|-----------------|-----------------|-----------------|
G#|-3---------------|-(3)-------------|-1---------------|-(1)-------------|
D#|-----------------|-----------------|-----------------|-----------------|

F#|-----------------|-----------------|-----------------|-----------------|
C#|-----------------|-----------------|-----------------|-----------------|
G#|-----------------|-----------------|-----------------|-----------------|
D#|-4---------------|-(4)-------------|-1---------------|-(1)-------------|

F#|-----------------|-----------------|-----------------|-----------------|
C#|-----------------|-----------------|-----------------|-----------------|
G#|-3---------------|-(3)-------------|-1---------------|-(1)-------------|
D#|-----------------|-----------------|-----------------|-----------------|

F#|-----------------|-----------------|-----------------|-----------------|
C#|-----------------|-----------------|-----------------|-----------------|
G#|-----------------|-----------------|-----------------|-----------------|
D#|-4---------------|-(4)-------------|-(4)-------------|-(4)-------------|


[Verse]

F#|-----------------|-----------------|-----------------|-----------------|
C#|-----------------|-----------------|-----------------|-----------------|
G#|-----------------|-----------------|-----------------|-----------------|
D#|-4p0---0---0---0-|-4p0---0-4-6-4---|-4p0---0---0---0-|-4p0---0-4-6-4---|

F#|-----------------|-----------------|-----------------|-----------------|
C#|-----------------|-----------------|-----------------|-----------------|
G#|-----------------|-----------------|-----------------|-----------------|
D#|-4p0---0---0---0-|-4p0---0-4-6-4---|-4p0---0---0---0-|-4p0---0-4-6-4-0-|

F#|-----------------|-----------------|-----------------|-----------------| x2
C#|-----------------|-----------------|-----------------|-----------------|
G#|-----------------|-----------------|-----------------|-----------------|
D#|-4r--------------|-----------------|-4p0---0---0---0-|-4p0---0-4-6-4---|

F#|-----------------|-----------------|-----------------|-----------------|
C#|-----------------|-----------------|-----------------|-----------------|
G#|-----------------|-----------------|-----------------|-----------------|
D#|-4r--------------|-----------------|-----------------|-----------------|

F#|-----------------|-----------------|-----------------|-----------------|
C#|-----------------|-----------------|-----------------|-----------------|
G#|-------6r--6-----|-------6r--6-----|--------6r--6----|--------6r--6----|
D#|-4/8-------------|-4/8-------------|-4/8-------------|-4/8-------------|

F#|-----------------|-----------------|-----------------|-----------------| x2
C#|-----------------|-----------------|-----------------|-----------------|
G#|-----------------|-----------------|-----------------|-----------------|
D#|-4r--------------|-----------------|-4p0---0---0---0-|-4p0---0-4-6-4---|

F#|-----------------|-----------------|-----------------|-----------------|
C#|-----------------|-----------------|-----------------|-----------------|
G#|-----------------|-----------------|-----------------|-----------------|
D#|-4r--------------|-----------------|-----------------|-----------------|

F#|-----------------|-----------------|-----------------|-----------------|
C#|-----------------|-----------------|-----------------|-----------------|
G#|-------6r--6-----|-------6r--6-----|--------6r--6----|--------6r--6----|
D#|-4/8-------------|-4/8-------------|-4/8-------------|-4/8-------------|


[Chorus]

F#|-----------------|-----------------|-----------------|-----------------|
C#|-----------------|-----------------|-----------------|-----------------|
G#|-----------------|-----------------|-----------------|-----------------|
D#|-0-0-0-0-0-0-0-0-|-0-0-0-0-0-0-4p2-|-0-0-0-0-0-0-0-0-|-0-0-0-0-0-0-4p2-|

F#|-----------------|-----------------|-----------------|-----------------|
C#|-----------------|-----------------|-----------------|-----------------|
G#|-----------------|-----------------|-----------------|-----------------|
D#|-0-0-0-0-0-0-0-0-|-0-0-0-0-0-0-4p2-|-0-0-0-0-0-0-0-0-|-0-0-0-0-0-0-2h4-|

F#|-----------------|-----------------|-----------------|-----------------|
C#|-----------------|-----------------|---------------1-|-2r--------------|
G#|-3-3-3-3-3-3-3-3-|-3-3-3-3-3-3-3-3-|-------1---3-4---|-----------------|
D#|-----------------|-----------------|-0-2-4-----------|-----------------|


[Solo]

F#|-----------------|-----------------|-----------------|-----------------|
C#|-----------------|-----------------|-----------------|-----------------|
G#|-----------------|-----------------|-----------------|-----------1-2-2-|
D#|-4p0---0---0---0-|-4p0---0-4-6-4---|-4p0---0---0---0-|-0-1-2-4---------|

F#|-----------------|-----------------|-----------------|-------------| x2
C#|-----------------|-----------------|-----------------|-------------|
G#|-4---------------|-4-------4-6-4---|-4---------------|-4-----4-----|
D#|---6---6---6---6-|---6---6---------|---6---6---6---6-|-----6-----6-|

F#|-----------------|-----------------|-----------------|-----------------|
C#|-----------------|-----------------|-----------------|-----------------|
G#|-----------------|-----------------|-----------------|-----------------|
D#|-4p0---0---0---0-|-4p0---0-4-6-4---|-4p0---0---0---0-|-4p0---0-4-6-4-0-|

F#|-----------------|-----------------|-----------------|-----------------| x2
C#|-----------------|-----------------|-----------------|-----------------|
G#|-6r--------------|-6-6r------------|-6r--------------|-6r--------------|
D#|-----------------|-----------------|-----------------|-----------------|


[Chorus]

F#|-----------------|-----------------|-----------------|-----------------|
C#|-----------------|-----------------|-----------------|-----------------|
G#|-----------------|-----------------|-----------------|-----------------|
D#|-1---------------|-(1)-------------|-(1)-------------|-(1)-------------|

F#|-----------------|-----------------|-----------------|-----------------|
C#|-----------------|-----------------|-----------------|-----------------|
G#|-----------------|-----------------|-----------------|-3---------------|
D#|-1-1r------------|-----------------|-----------------|-------4-----0---|

F#|-----------------|-----------------|
C#|-----------------|-----------------|
G#|-----------------|-----------------|
D#|-1r--------------|-----------------|


[Verse]

F#|-----------------|-----------------|-----------------|-----------------|
C#|-----------------|-----------------|-----------------|-----------------|
G#|-----------------|-----------------|-----------------|-----------------|
D#|-----------------|-----------------|-4p0---0---0---0-|-4p0---0-4-6-4---|

F#|-----------------|-----------------|-----------------|-----------------|
C#|-----------------|-----------------|-----------------|-----------------|
G#|-----------------|-----------------|-----------------|-----------------|
D#|-4r--------------|-----------------|-4p0---0---0---0-|-4p0---0-4-6-4---|

F#|-----------------|-----------------|-----------------|-----------------|
C#|-----------------|-----------------|-----------------|-----------------|
G#|-----------------|-----------------|-----------------|-----------------|
D#|-4r--------------|-----------------|-----------------|-----------------|

F#|-----------------|-----------------|-----------------|-----------------|
C#|-----------------|-----------------|-----------------|-----------------|
G#|-------6r--6-----|-------6r--6-----|--------6r--6----|--------6r--6----|
D#|-4/8-------------|-4/8-------------|-4/8-------------|-4/8-------------|


[Chorus]

F#|-----------------|-----------------|-----------------|-----------------| x2
C#|-----------------|-----------------|-----------------|-----------------|
G#|-----------------|-----------------|-----------------|-----------------|
D#|-----------------|-----------------|-----------------|-----------------|

F#|-----------------|-----------------|-----------------|-----------------|-----------------|
C#|-----------------|-----------------|-----------------|-----------------|-----------------|
G#|---------6---7r--|-----------------|-----------------|-----------------|-----------------|
D#|-0---4-----------|-----------------|-----------------|-----------------|-----------------|


[Harmonica Solo]

F#|-----------------|-----------------|-----------------|-----------------|
C#|-----------------|-----------------|-----------------|-----------------|
G#|-----------------|-----------------|-----------------|-----------------|
D#|-8-8-8-8-8-8-8-8-|-8-8-8-8-8-8-8-8-|-6-6-6-6-6-6-6-6-|-6-6-6-6-6-6-6-6-|

F#|-----------------|-----------------|-----------------|-----------------|
C#|-----------------|-----------------|-----------------|-----------------|
G#|-----------------|-----------------|-----------------|-----------------|
D#|-4-4-4-4-4-4-4-4-|-4-4-4-4-4-4-4-4-|-0-0-0-0-0-0-0-0-|-0-0-0-0-0-0-0-0-|

F#|-----------------|-----------------|-----------------|-----------------|
C#|-----------------|-----------------|-----------------|-----------------|
G#|-----------------|-----------------|-----------------|-----------------|
D#|-8-8-8-8-8-8-8-8-|-8-8-8-8-8-8-8-8-|-6-6-6-6-6-6-6-6-|-6-6-6-6-6-6-6-6-|

F#|-----------------|-----------------|-------------|
C#|-----------------|-----------------|-------------|
G#|---------6---7r--|-----------------|-------------|
D#|-0---4-----------|-----------------|-------------|


[Chorus/Outro]

F#|-----------------|-----------------|-----------------|-----------------|
C#|-----------------|-----------------|-----------------|-----------------|
G#|-----------------|-----------------|-----------------|-----------------|
D#|-0-0-0-0-0-0-0-0-|-0-0-0-0-0-0-4p2-|-0-0-0-0-0-0-0-0-|-0-0-0-0-0-0-4p2-|

F#|-----------------|-----------------|-----------------|-----------------|
C#|-----------------|-----------------|-----------------|-----------------|
G#|-----------------|-----------------|-----------------|-----------------|
D#|-0-0-0-0-0-0-0-0-|-0-0-0-0-0-0-4p2-|-0-0-0-0-0-0-0-0-|-0-0-0-0-0-0-2h4-|

F#|-----------------|-----------------|-----------------|-----------------|
C#|-----------------|-----------------|---------------1-|-2r--2r--2r--2r--|
G#|-3-3-3-3-3-3-3-3-|-3-3-3-3-3-3-3-3-|-------1---3-4---|-----------------|
D#|-----------------|-----------------|-0-2-4-----------|-----------------|

F#|-----------------|-----------------|-----------------|-----------------|
C#|-----------------|-----------------|-----------------|-----------------|
G#|-----------------|-----------------|-----------------|-----------------|
D#|-4p0---0---0---0-|-4p0---0-4-6-4---|-4p0---0---0---0-|-4p0---0-4-6-4---|

F#|-----------------|-----------------|-----------------|-----------------|
C#|-----------------|-----------------|-----------------|-----------------|
G#|-----------------|-----------------|-----------------|-----------------|
D#|-4p0---0---0---0-|-4p0---0-4-6-4---|-4p0---0---0---0-|-4p0-4p0-4-6-4-0-|

F#|-----------------|-----------------|-----------------|-----------------|
C#|-----------------|-----------------|-----------------|-----------------|
G#|-----------------|-----------------|-----------------|-----------------|
D#|-4p0---0---0---0-|-4p0---0-4-6-4---|-4p0---0---0---0-|-4p0---0-4-6-4---|

F#|-----------------|-----------------|-----------------|-----------------|
C#|-----------------|-----------------|-----------------|-----------------|
G#|-----------------|-----------------|-----------------|-8---8-----------|
D#|-4p0---0---0---0-|-4p0---0-4-6-4---|-4p0---0---0---0-|---6---6-4-6-4-0-|

F#|-----------------|-----------------|-----------------|-----------------|
C#|-----------------|-----------------|-----------------|-----------------|
G#|-----------------|-----------------|-----------------|-----------------|
D#|-4p0---0---0---0-|-4p0---0-4-6-4---|-4p0---0---0---0-|-4p0---0-4-6-4---|

F#|-----------------|-----------------|-----------------|-----------------|
C#|-----------------|-----------------|-----------------|-----------------|
G#|-----------------|-----------------|-----------------|-----------------|
D#|-4p0---0---0---0-|-4p0---0-4-6-4---|-4p0---0---0---0-|-4p0-4p0-4-6-4-0-|

F#|-----------------|-----------------|-----------------|-----------------|
C#|-----------------|-----------------|-----------------|-----------------|
G#|-----------------|-----------------|-----------------|-----------------|
D#|-4p0---0---0---0-|-4p0---0-4-6-4---|-4p0---0---0---0-|-4p0---0-4-6-4---|

F#|-----------------|-----------------|-----------------|-----------------|
C#|-----------------|-----------------|-----------------|-----------------|
G#|-----------------|-----------------|-----------------|---------6---7r--|
D#|-4p0---0---0---0-|-4p0---0-4-6-4---|-4p0---0---0---0-|-0---4-----------|



Hope you enjoy. Let me know if you have corrections.

************************************

| (n) Ghost note
| p   Pull-off
| r   Release
| /   Slide up

************************************

            
            
Suggest correction
Creating personal tab
Creating personal tab
You can edit any tab online and save it as your Personal.

You can edit, replace or remove any tab part or add personal notes – all changes will be seen only by you.

Personal tabs can be accessed anytime from any device, even offline.
Learn more »
Give kudos to tab author, rate the tab!
1 2 3 4 5
comments
print report bad tab
2 comments total.
0 reply
joseph_navarr 1,783 Aug 01, 2017 08:47 PM

Would you happen to have the guitar intro section?

0 reply
PunchInTheBass 2,310 Aug 22, 2017 05:34 PM

I don't, but i can try to figure it out and post it if you want.

guest
You may want to rate the tab now too:
select rating
Wanna post a correction for this tab? Suggest correction