Oops, an error
Loading. Please wait.

El Picaflor tab

version 2
version 2

Whole song

64 views 1 this week
no commentswrite comment
1 2 3 4 5
3 more votes to show rating
add to favorites
×
Save as Personal and add changes to this tab that will be seen only by you. Learn more ›
×
You can save this tab as Personal to edit and correct it or add notes. All changes will be seen only by you. Learn more »
launch autoscroll
font size
0
reset
how to read this tab
guitar tuner
edit
Autoscroll
slow
fast
+/-
esc
set tempo
stop
Kjarkas
El Picaflor
Autor: Edwin Castellanos
Album: CHUQUIAGU MARKA
Año: Bolivia - 1988

1ro Introducción (00:01)
    LAm    MIm   REm    MI7
MI -----0------0-----1------0-
SI ----1-1----0-----3-3----0--
SOL---2------0-----2------1---
RE --2------2-----0------0----
LA -0------2-----0------2-----
MI --------------------------- (x2)
 DO     SOL   REm    MI7
-----0------3-----1------0-
----1-1----0-----3-3----0--
---0------0-----2------1---
--2------0-----0------0----
-3------2-----0------2-----
---------------------------
 DO     SOL   REm    MI7
-----0------3--------------0--
----1-1----0-----3--------1-1-
---0------0-----2----1---2----
--2------0-----0----0---2-----
-3------2----------2---0------
------------------------------

2do Pre-verso (00:27)
-----0---
----1-1--
---2-----
--2------
-0-------
---------

3ro Verso (00:29)
    LAm          MIm
MI ------------------0-
SI ----0-1-0--------0--
SOL---2------2-----0---
RE --2---------2--2----
LA -0------------2-----
MI --------------------
     Yo le robé a cada flor...
 REm          MI7
----0-1-0---------
---3------3-------
--2---------0---1-
-0-------------0--
--------------2---
------------------
   lo mejor para olvidarte...
 LAm          MIm
------------------0-
----0-1-0--------0--
---2------2-----0---
--2---------2--2----
-0------------2-----
--------------------
   así como el picaflor...
 REm          MI7
----0-1-0---------
---3------3-------
--2---------0---1-
-0-------------0--
--------------2---
------------------
   he volado a todas partes...

4to Verso II (00:42)
DO                 SOL
Y en cada beso que daba
REm             MI7
a mi mente regresabas...
DO                 SOL
reviviendo aquel amor
REm     MI7       LAm
que contigo yo sentí... (x2)

5to Coro (01:23)
LAm                  FA
Primera vez que a mi vida
REm               MI7
le golpeó duro el amor...
LAm                    FA
primera vez que en mis venas
REm                  MI7
sentí el latir de ilusión...
DO                 SOL
primera vez que no pude
REm     MI7      LAm
decirle no al corazón...
DO                 SOL
primera vez que no pude
REm     MI7      LAm
decirle no al corazón...

6to Intermedio (01:50)
  LAm  

            
            
Suggest correction
Creating personal tab
Creating personal tab
You can edit any tab online and save it as your Personal.

You can edit, replace or remove any tab part or add personal notes – all changes will be seen only by you.

Personal tabs can be accessed anytime from any device, even offline.
Learn more »
Give kudos to tab author, rate the tab!
1 2 3 4 5
comments
print report bad tab
guest
Wanna post a correction for this tab? Suggest correction