Oops, an error
Loading. Please wait.

En Un Abril tab

31 views 1 this week
no commentswrite comment
1 2 3 4 5
3 more votes to show rating
add to favorites
×
Save as Personal and add changes to this tab that will be seen only by you. Learn more ›
×
You can save this tab as Personal to edit and correct it or add notes. All changes will be seen only by you. Learn more »
launch autoscroll
font size
0
reset
how to read this tab
guitar tuner
edit
Autoscroll
slow
fast
+/-
esc
set tempo
stop
 Hola todos! Aquí les envío La Tabulación para
 la introducción en Guitarra de este tema.
 Debes usar el Capotrasto en el 2º traste para
 esta transcripción. Eso quiere decir que el traste
 2 se cuenta como "Cero" (0). Así, por ejemplo,
 cuando veas "12" será en realidad el traste "14"
 ó si ves "7" será el traste "9" real.
 Que les aproveche!


 Ritmo: Cueca Boliviana


 E|--12--10--12--10--|--7---5---7---5--|
 B|--10--10--10--10--|--5---5---5---5--|
 G|--10--10--10--10--|--5---5---5---5--|
 D|------------------|-----------------|
 A|------------------|-----------------|
 E|------------------|-----------------|


 E|--8--7--6--7--8---|
 B|--7--6--5--6--7---| Medio rasgueo de
 G|--8--7--6--7--8---| cueca en MI mayor
 D|------------------|
 A|------------------|
 E|------------------|


 E|--3---1---3---3---|--7---5---7---5--|
 B|--1---1---1---1---|--5---5---5---5--|
 G|--1---1---1---1---|--5---5---5---5--|
 D|------------------|-----------------|
 A|------------------|-----------------|
 E|------------------|-----------------|


 E|--5----4--3--4---4-h-7-----5--|
 B|--4----3--2--3---3-h-6-----5--|   Am
 G|--5----4--3--4---4-h-7-----5--|
 D|------------------------------|
 A|------------------------------|
 E|------------------------------|


 E|---------5-4-7-------------------5-4-7-5-|
 B|-------6-----------5-6-5-6-5-4-5---------|
 G|-7---7---------5-7-----------------------|
 D|---7-------------------------------------|
 A|-----------------------------------------|
 E|-----------------------------------------|


 E|---------------------|
 B|------------------0--|
 G|---------0-----------|   Am
 D|-0-----2--------0----| !ADENTRO!
 A|---2-3--------2------|
 E|---------------------|
        C        E7


  Am      F
  Dejé la viña en el mar

  G                C E7
  Donde creció una flor

  Am         Bb
  Traigo los años cansados

  B7           E7
  De un gran amor

  Am         Dm
  Mis veinte años reviven

  E7           Am
  En esta canción.


  Am         F
  Por qué será que la vida

  G            C E7
  Me pagó tan mal

  Am           Bb
  Que hoy solo busco consuelo

  B7           E7
  De otro corazón

  Am       Dm
  En un abril yo he dejado

  E7               Am
  Llorando a un querer.


  Am               G
  Andaré... por la vida...

  G7                       C
  Prisionero de tu dulce amor

         Am                 Bb
  Si tus ojos, me dice el destino

         B7          E7
  Prisionero quiero ser.


  Andaré por el camino
                                   Am
  Si en tus labios encuentro el volver.

  Am     F
  LA, LA, LA ,LA....


  Am       Dm
  En un abril yo he dejado

  E7               Am
  Llorando a un querer.

            
            
Suggest correction
Creating personal tab
Creating personal tab
You can edit any tab online and save it as your Personal.

You can edit, replace or remove any tab part or add personal notes – all changes will be seen only by you.

Personal tabs can be accessed anytime from any device, even offline.
Learn more »
Give kudos to tab author, rate the tab!
1 2 3 4 5
comments
print report bad tab
guest
Wanna post a correction for this tab? Suggest correction