Oops, an error
Loading. Please wait.

La Mujer Que Llego tab

version 1
version 1

Whole song

43 views 1 this week
no commentswrite comment
1 2 3 4 5
3 more votes to show rating
add to favorites
×
Save as Personal and add changes to this tab that will be seen only by you. Learn more ›
×
You can save this tab as Personal to edit and correct it or add notes. All changes will be seen only by you. Learn more »
launch autoscroll
font size
0
reset
how to read this tab
guitar tuner
edit
Autoscroll
slow
fast
+/-
esc
set tempo
stop
Ritmo: K´hantu
Tono: MIM

Se toca con dos guitarras, mientras una guitarra toca el punteo
la otra acompaña con el arpegio. (Se repite todo el punteo 2 veces,
uno solo y el otro con acompañamiento de la zampoña cromática.)

Introducción:

                         MI                         SOL#m
e -12-12-11-11-9-9-7-7-9-11-|-11-11-9-9-------------7-9--|
B --------------------------|-----------12-12-10-10------|
G --------------------------|----------------------------|
D --------------------------|----------------------------|
A --------------------------|----------------------------|
E --------------------------|----------------------------|


                       FA#m                    MI 
e -9-9-7-7-----------------|----------------------|
B ---------10-10-9-9-10-12-|-9-9-7-7--------------|
G -------------------------|---------9-9-8-8-9-11-|
D -------------------------|----------------------|
A -------------------------|----------------------|
E -------------------------|----------------------|


                 FA#m    SI7             MI 
e ------------7-9------|-0-4-0---0----------|
B -----7-9-10-----9----|-------0---0---0----|
G -8-9-----------------|-------------1------|
D ---------------------|-----------------2--|
A ---------------------|--------------------|
E ---------------------|--------------------|


        MI   LA              MI 
Ayer no máaaaaas llego a mi vida
         LA     SI7    LA       MI 
con el alma herida, cansada, vencida
                   FA#m SI7
llevaba días sin dormir
                      MI 
y un odio sordo en su ser.

         MI  LA        MI 
Y yo cuidéeeeeee sus heridas
        LA        SI7
y se quedó, en mi vida
 LA           MI 
curando sus heridas
                        FA#m SI7
se fue el temor de fracasar
                        MI 
volvió a la vida a sonreír.

        DO#m     SOL#m
Y yo la amé, la amé
        LA        MI 
me enamoré perdidamente
                   FA#m SI7
amé su cuerpo de mujer
                       MI 
mis besos tibios en su desnudez.

         DO#m     SOL#m
Y se marchó de mi vida
       LA       MI 
y me dejó sus heridas
                          FA#m SI7
yo sé que un día ha de volver
                    MI 
si me recuerda a de volver
                       FA#m
tan sólo tengo que esperar
SI7         MI 
así es la vida.


Se repite la introducción 2 veces.


        DO#m     SOL#m
Y yo la amé, la amé
        LA        MI 
me enamoré perdidamente
                   FA#m SI7
amé su cuerpo de mujer
                       MI 
mis besos tibios en su desnudez.

         DO#m     SOL#m
Y se marchó de mi vida
       LA       MI 
y me dejó sus heridas
                          FA#m SI7
yo sé que un día ha de volver
                    MI 
si me recuerda a de volver
                       FA#m
tan sólo tengo que esperar
SI7           MI 
así es laaa vidaaaa.

Para terminar junto a la zampoña.

MI   SOL#m  DO#m  SOL#m
SOL#m  SOL#m  SOLm  FA#m  LA   SI7  MI .


Acordes utilizados:


Este método se lo interpreta de la siguiente forma:
EJEMPLO:
             MIM:(022100)
             (6ªc, 5ªc, 4ªc, 3ªc, 2ªc, 1ªc)
              6ªc= 6ª cuerda,
              5ªc= 5ª cuerda,etc.

MIM:(022100)
LAM:(002220)
Si7:(021202)
Fa#m:(244222)
Do#m:(446654)
Sol#m:(466444)
solm:(355333)

Arpegio de K´hantu:


e --------v-----v-----v-----v-------|
B ------v---v-----v-----v-----------|
G ----v-------v-----v-----v---------|
D --v-------------------------------|
A ----------------------------------|
E ----------------------------------|

v: Es la cuerda que se toca una por una, acabado este se comienza
de nuevo.
Te aconsejo que escuches el tema para poder encontrar el ritmo.


Rasgueo de K´hantu:


      LI  GE  RI  TO     PES  CA  ME
e ----^---|---^---|-------^---^---|------|
B ----|---|---|---|-------|---|---|------|
G ----|---|---|---|-------g---|---|------|
D ----|---|---|---|-------g---|---|------|
A ----|---|---|---|-------|---|---|------|
E ----|---v---|---v-------|---|---v------|

g= golpe o apagado
Nota: Fijarse bien hacia donde indica la flecha y las figuras
musicales que aparecen arriba, porque estas le da el ritmo al
rasgueo.

Cualquier duda ,consulta o quieren que les mande las partituras
de la zampoña de este o cualquier otro tema escribanme al
correo que aparece en la parte superior de la página.


XIPPY.


La Paz- Bolivia.

            
            
Suggest correction
Creating personal tab
Creating personal tab
You can edit any tab online and save it as your Personal.

You can edit, replace or remove any tab part or add personal notes – all changes will be seen only by you.

Personal tabs can be accessed anytime from any device, even offline.
Learn more »
Give kudos to tab author, rate the tab!
1 2 3 4 5
comments
print report bad tab
guest
Wanna post a correction for this tab? Suggest correction