Oops, an error
Loading. Please wait.

Munask'echay tab

version 1
version 1

Whole song

116 views 1 this week
no commentswrite comment
1 2 3 4 5
3 more votes to show rating
add to favorites
×
Save as Personal and add changes to this tab that will be seen only by you. Learn more ›
×
You can save this tab as Personal to edit and correct it or add notes. All changes will be seen only by you. Learn more »
launch autoscroll
font size
0
reset
how to read this tab
guitar tuner
edit
Autoscroll
slow
fast
+/-
esc
set tempo
stop
* // :estas dos barras quieren decir qlas notas van ligadas         *
* /  :esta significa q se desliza                                   *
*-------------------------------------------------------------------*
* Cuando encuentren las notas entre parentesis -(0-1-0)- o -(0-2-0)-*
* q en la tab las escribi juntas,se toca la primera nota al aire se *
* asienta en la segunda nota y suelto.                              *
* Ejem.                                                             *
* E/---(020)-----                                                   *
* B/-------------                                                   *
* Toco la primera cuerda al aire piso en el segundo traste y suelto *
*********************************************************************
Esta es la version tal como lo hace el guitrrista de los Kjarkas asi
que escuchen bien el tema y a practicar

E/-3----3----2----2------0-0-0-0-3-0-------------/
B/-----0---0-----0---0---1-1-1-1------3---3-3---3/
G/---0---0-----2---2-----0-0-0-0--------3-----3--/
D/-2---------0-----------------------------------/
A/---------------------3--------------2----------/
E/-----------------------------------------------/

E/----------0-----------------0-/
B/---1--1-1---1-(010)--------0--/
G/---0--0-0------0--------------/
D/--------------------2//4/5----/
A/-0---0------------------------/
E/---------------0--------------/

E/---2---2-2-(020)---(020)---0----12-/ si si fijan el video
B/-----------------3--------0----12--/ aqui al final solo
G/-------------------------0----12---/ rosa las cuerdas no
D/-0---0-----------------------------/ las pisa
A/-----------------------------------/
E/--------------------0--------------/

E/-3----3/7--2---2-2/7----0-0-0-0-3-0--------------/
B/-----0-------3----------1-1-1-1------3---3-3---3-/
G/---0--------------------0-0-0-0--------3-----3---/
D/-2---------0-------------------------------------/
A/----------------------3--------------2-----------/
E/-------------------------------------------------/

E/----------0-----------------0-/
B/---1--1-1---1-(010)--------0--/
G/---0--0-0------0--------------/
D/--------------------2//4/5----/
A/-0---0------------------------/
E/---------------0--------------/

E/---2--2-2-(020)---(020)---------------/
B/----------------3-------3-0-----0-----/
G/----------------------------2-0----0--/
D/-0--0------------------------------2--/
A/-----------------------------------2--/
E/-----------------------------------0--/


Em-D-C-G-C-G-D-Em
Em-D-C-D-Em
Em
munasqetay
              D
tuta punchay maskakunay
        C               D  Em
tarispa suscucunay warmisitay
Em
munasqetay
              D
tuta punchay maskakunay
        C               D  Em
tarispa suscucunay warmisitay

          Bm            A
qanraykullayña karin viday
         C   D      Em
sonqo kullay sipasitay
   Bm            A
Qanraykullay ñakarin viday
         C   D      Em
sonqo kullay sipasitay

Em-D-A-Em-D-A
C-G-Bm-Em-D-Em

Em
mi buen amor
               D
mi herida de amor mi verdad
             C
mi credo razon de vivir
               Em
mi lluvia de abril
Em
mi buen amor
               D
mi herida de amor mi verdad
             C
mi credo razon de vivir
               Em
mi lluvia de abril

Bm           A
gracias a ti mi triste vivir
          C          Em
pudo cambiar en un jardin

  Bm           A
gracias a ti mi triste vivir
          C          Em
pudo cambiar en un jardin
Em-D-C-D-Em

Saludos para todos los pibes del Bachi 18 de purmamarca
Iam_

            
            
Suggest correction
Creating personal tab
Creating personal tab
You can edit any tab online and save it as your Personal.

You can edit, replace or remove any tab part or add personal notes – all changes will be seen only by you.

Personal tabs can be accessed anytime from any device, even offline.
Learn more »
Give kudos to tab author, rate the tab!
1 2 3 4 5
comments
print report bad tab
guest
Wanna post a correction for this tab? Suggest correction