Oops, an error
Loading. Please wait.

Sin Ella tab

82 views 1 this week
no commentswrite comment
1 2 3 4 5
3 more votes to show rating
add to favorites
×
Save as Personal and add changes to this tab that will be seen only by you. Learn more ›
×
You can save this tab as Personal to edit and correct it or add notes. All changes will be seen only by you. Learn more »
launch autoscroll
font size
0
reset
how to read this tab
guitar tuner
edit
Autoscroll
slow
fast
+/-
esc
set tempo
stop
Kjarkas
Sin Ella (TAB)
ORIGEN: Capinota (Cochabamba)
PAIS: Bolivia

A ver si les gusta esta transcripción,
tiene un buen acompañamiento, cualquier duda o
sugerencia escriban a mi correo danyes_cad@

1er Introducción (00:01)
  SOL     DO      FA     SOL    LAm
======   ======   ======  ======  ======
||||||   ||||o|   ++++++  ||||||  ||||o|
|o||||   ||o|||   |||o||  |o||||  ||oo||
o||||o   |o||||   |oo|||  o||||o  ||||||
||||||   ||||||   ||||||  ||||||  |||||| (x2)
 (Rasgueo)
| |  x | |  x | | 
| | | x | | | x | | |
| | | x | | | x | | |
  | x   | x   |

2do Pre verso (00:22)
MI ---------
SI ---------
SOL---------
RE ---------
LA -6-5-4-3-
MI ---------

3ro Verso (00:25)
           REm    SOL     DO     LAm
------------1--1---3-----------------
-------------3--3----0---------------
-----------2--2---0-------0--0----2--
---------------------------2--2----2-
-------------------------3--3---0----
-------------------------------------
Hoy he querido, tenerla cerca......

           REm    MI         LAm
-------------------------------------
------------3--3-------------1--1----
-------------2--2--1--1-------2--2---
-----------0--0-----2--2----2--2---2-
------------------2--2---------------
-------------------------------------
hoy he sentido, que me hace falta....

              REm    SOL         DO     LAm
---------------1--1---3----------------------
----------------3--3----0--------------------
--------------2--2---0------------0--0----2--
-----------------------------------2--2----2-
---------------------------------3--3---0----
---------------------------------------------
yo se que el tiempo, no ha de borrarla....

             REm    MI        LAm
------------------------------------------
--------------3--3-------------1--1-----1-
---------------2--2--1--1-------2------2--
-------------0--0-----2--2----2--2----2---
--------------------2--2-------------0----
------------------------------------0-----
honda es su huella, dentro mi alma.....

4to Coro (00:47)
    FA      SOL     DO
Sin ella no puedo vivir,
    FA       SOL        DO
sin ella el amor no es amor,
    FA     SOL     MI      LAm
Si ella la vida no tiene razón,
    REm      MI         LAm
sin ella el amor no es amor.

5to Intermedio (01:08)
  SOL     DO      FA     SOL    LAm
======   ======   ======  ======  ======
||||||   ||||o|   ++++++  ||||||  ||||o|
|o||||   ||o|||   |||o||  |o||||  ||oo||
o||||o   |o||||   |oo|||  o||||o  ||||||
||||||   ||||||   ||||||  ||||||  |||||| (x2)

6to Pre verso (01:30)
MI ---------
SI ---------
SOL---------
RE ---------
LA -6-5-4-3-
MI ---------

7mo Verso (01:32)
             REm    SOL        DO     LAm
--------------1--1---3---------------------
---------------3--3----0-------------------
-------------2--2---0-----------0--0----2--
---------------------------------2--2----2-
-------------------------------3--3---0----
-------------------------------------------
La ausencia viene, a hablar conmigo.....

            REm    MI           LAm
-----------------------------------------
-------------3--3----------------1--1----
--------------2--2--1--1----------2--2---
------------0--0-----2--2-------2--2---2-
-------------------2--2------------------
-----------------------------------------
me he dado cuenta, que la he perdido.....

             REm    SOL         DO     LAm
--------------1--1---3-----------------
---------------3--3----0---------------
-------------2--2---0-------0--0----2--
-----------------------------2--2----2-
---------------------------3--3---0----
---------------------------------------
solo te he amado y comprendido....

             REm    MI        LAm
--------------------------------------------
--------------3--3---------------1--1-----1-
---------------2--2--1--1---------2------2--
-------------0--0-----2--2------2--2----2---
--------------------2--2---------------0----
--------------------------------------0-----
no había equilibrio en nuestro amor....

8vo Coro (01:54)
    FA      SOL     DO
Sin ella no puedo vivir,
    FA       SOL        DO
sin ella el amor no es amor,
    FA     SOL     MI      LAm
Si ella la vida no tiene razón,
    REm      MI         LAm
sin ella el amor no es amor.(x2)

9no Salida (02:36)
  SOL     DO      FA     SOL    LAm
======   ======   ======  ======  ======
||||||   ||||o|   ++++++  ||||||  ||||o|
|o||||   ||o|||   |||o||  |o||||  ||oo||
o||||o   |o||||   |oo|||  o||||o  ||||||
||||||   ||||||   ||||||  ||||||  |||||| (x2)

Fin (02:58)

Saludos a la Familia Cádiz y Calizaya en Bolivia.....

            
            
Suggest correction
Creating personal tab
Creating personal tab
You can edit any tab online and save it as your Personal.

You can edit, replace or remove any tab part or add personal notes – all changes will be seen only by you.

Personal tabs can be accessed anytime from any device, even offline.
Learn more »
Give kudos to tab author, rate the tab!
1 2 3 4 5
comments
print report bad tab
guest
Wanna post a correction for this tab? Suggest correction