Oops, an error
Loading. Please wait.

Tarde tab

22 views 1 this week
no commentswrite comment
1 2 3 4 5
3 more votes to show rating
add to favorites
×
Save as Personal and add changes to this tab that will be seen only by you. Learn more ›
×
You can save this tab as Personal to edit and correct it or add notes. All changes will be seen only by you. Learn more »
launch autoscroll
font size
0
reset
how to read this tab
guitar tuner
edit
Autoscroll
slow
fast
+/-
esc
set tempo
stop
 Hola todos! Aquí les envío La Tabulación para CHARANGO
 de esta canción de los Kjarkas. Recibo todas vuestras
 sugerencias, cambios y pedidos. Que les aproveche!


   Dm                          A#
 E|-1---1------5-3-1-0-----0-|-1---1------5-3-1-0-----0-|
 A|---0---0------------------|---1---1------------------|
 E|--------------------------|--------------------------|
 C|-2---2------5-4-2-0---2---|-2---2------5-4-2-0---2---|
 G|--------------------------|---3---3------------------|


    Gm                    A
 E|-3---3-------------3-1-0---0-----0-|--0---0-----------3-1-0-------|
 A|---1---1-------1---------------0---|----0---0--0h1-0--------------|
 E|-----------------------------------|------------------------------|
 C|-2---2-----------------------1-----|--1-1-1-1---------------2-1h2-|
 G|-----------0h2---0-----------------|------------------------------|


                                                           Dm
 E|-0---0---------3-1-0-------|-0---0-------|--------3-1-0-1---------1-1-1-|
 A|---0---0-0h1-0-------------|---0---0-0h1-|0-1-1h0-----------------------|
 E|---------------------------|-------------|------------------------------|
 C|-1-1-1-1-------------2-1h2-|-1-1-1-1-----|----------------2-1-0-1-2-2-2-|
 G|---------------------------|-------------|------------------------------|


 Comprende que es            Desde el rincón                 Y en el lucero
 muy tarde...                que dejaste...                  perdido...

 E|---------1-1-1-|          E|-------------------|          E|-3-0---0-6--|
 A|---------------|          A|-------------------|          A|-----1------|
 E|---------------|          E|---6-------6-------|          E|------------|
 C|-2-1-0-1-2-2-2-|          C|-7-----7-5-----5-4-|          C|------------|
 G|---------------|          G|-------------------|          G|------------|

            
            
Suggest correction
Creating personal tab
Creating personal tab
You can edit any tab online and save it as your Personal.

You can edit, replace or remove any tab part or add personal notes – all changes will be seen only by you.

Personal tabs can be accessed anytime from any device, even offline.
Learn more »
Give kudos to tab author, rate the tab!
1 2 3 4 5
comments
print report bad tab
guest
Wanna post a correction for this tab? Suggest correction