Oops, an error
Loading. Please wait.

Gerimis tab

2,348 views 1 this week
1 commentread comment
1 2 3 4 5
3 more votes to show rating
add to favorites
×
Save as Personal and add changes to this tab that will be seen only by you. Learn more ›
×
You can save this tab as Personal to edit and correct it or add notes. All changes will be seen only by you. Learn more »
launch autoscroll
font size
0
reset
how to read this tab
guitar tuner
edit
Autoscroll
slow
fast
+/-
esc
set tempo
stop
Author
Difficulty
            Kla Project - Gerimis



e||-----------------------------------------------------|
B||-----------------------------------------------------|
G||----4/6-4-2-----------------------------2-4---2-4----|
D||------------4--4-2-2/4~~~--4-2-2/4~~~----------------|
A||-----------------------------------------------------|
E||-----------------------------------------------------|

e-------------------------------||
B-------------------------------||
G----4/6-4-2--------------------|| 2x
D------------4~~~--4-2-4/6~~~---||
A-------------------------------||
E-------------------------------||


D Bm  C#m   F#m
Musim penghujan hadir
D  Bm   C#m
Tanpa pesan
D Bm C#m F#m
Bawa kenangan lama
D    Bm    C#m
Tlah menghilang

Saat yg indah dikau
Dipelukan
Setiap nafasmu
Adalah milikku.. oh..




e||----7/9-7-5-----------------------------5-7---5-7----|
B||------------7~~~---7-5-7~~~---7-5-7~~~---------------|
G||-----------------------------------------------------|
D||-----------------------------------------------------|
A||-----------------------------------------------------|
E||-----------------------------------------------------|

e----7/9-7-5-----------------||
B------------7---7-5-7/9-----||
G----------------------------|| 2x
D----------------------------||
A----------------------------||
E----------------------------||

Surya terpancar dari
Wajah kita
Bagai menghalau mendung
Hitam tiba .. oh..


          * Sekejap badai datang
          Mengoyak kedamaian
          Segala musnah lalu
          Gerimis langitpun
          Menangis..

       ** Kekasih..
       Andai saja kau mengerti
       Harusnya kita
       Mampu lewati itu semua
       Dan bukan menyerah
       Untuk berpisah

use 




e|------------------------------------|
B|------------------------------------|
G|------------------------------------|
D|--------2-2-----2-2-----2h4---------|
A|----2h4-------4-------4-----2/4-----|
E|------------------------------------|

e|------------------------------------|
B|------------------------------------|
G|----------------2/4----2-1h2p1------|
D|--------2-6---4----------------2----|
A|----2h4-----------------------------|
E|------------------------------------|

e|---------------------------------------------|
B|----0----0---0----0---9h10-9--12-10-9--------|
G|----9h11-9---9h11-9-------------------11-----|
D|---------------------------------------------|
A|---------------------------------------------|
E|---------------------------------------------|

                       ^  v  ^  ^ v ^
e|---------9-10-10/12--12-12-12-----------12h14--12----|
B|----9-10----------------------9-9-9-----12-----12----|
G|-----------------------------------------------------|
D|-----------------------------------------------------|
A|-----------------------------------------------------|
E|-----------------------------------------------------|

e|----10-9h10p9----9-------------------|
B|--------------12---10-9--------------|
G|------------------------9------------|
D|--------------------------9~~~-------|
A|-------------------------------------|
E|-------------------------------------|

to <*>
to <**>

Kekasih..
Andai saja kau mengerti
Harusnya kita..
Mampu lewati itu semua


Kekasih..
Andai saja kau sadari
Semua hanya..
Satu ujian tuk cinta kita
Dan bukan alasan
Untuk berpisah..

 4x till end..
Kekasih..
Andai saja..
Kekasih..

            
            
Suggest correction
Creating personal tab
Creating personal tab
You can edit any tab online and save it as your Personal.

You can edit, replace or remove any tab part or add personal notes – all changes will be seen only by you.

Personal tabs can be accessed anytime from any device, even offline.
Learn more »
Give kudos to tab author, rate the tab!
1 2 3 4 5
comments
print report bad tab
1 comment total.
0 reply
dima5_project 10 Dec 09, 2009 10:53 PM

thanks !!!

guest
You may want to rate the tab now too:
select rating
Wanna post a correction for this tab? Suggest correction