Oops, an error
Loading. Please wait.

Echoes bass

version 1
version 1

Whole song

Interactive

by Klaxons
7,688 views 3 this week
2 commentsread comments
1 2 3 4 5
x 6
add to favorites
×
Save as Personal and add changes to this tab that will be seen only by you. Learn more ›
×
You can save this tab as Personal to edit and correct it or add notes. All changes will be seen only by you. Learn more »
launch autoscroll
font size
0
reset
guitar tuner
edit
Autoscroll
slow
fast
+/-
esc
set tempo
stop
Author
Song - Echoes
Band - Klaxons
Album - Surfing the Void (2010)
Tabber - Brian Lee


Brand new song from Klaxons. Great tune. I tabbed this song with the official  video of 
song (crap sound) so about 10% of the tab will be incorrect. I'll fix it as soon as the 
comes out.


Intro:

G|-------------------------------------------------------------------------|
D|-------------------------------------------------------------------------|
A|-------------------------------------------------------------------------|
E|-5-5-0h5--5-5-0h5--4-4-0h4--4-4-0h4--9-9-0h9--9-9-0h9--11-11-0h11--7-7-7-|

G|----------------------------------------------------------|
D|----------------------------------------------------------|
A|----------------------------------------------------------|
E|-5-5-0h5--5-5-0h5--4-4-0h4--4-4-0h4--9-9-0h9--9-9-9--9~---|

Verse:

Send out a sound for the wood between the worlds
Gently repeat as the boundaries start to swirl

G|---------------|
D|-7~-6~---------|       X2
A|-------4~------|
E|---------------|


Keep to the call that is twice now liminal
It's not the same where the trails lead to the outer regions

G|-------------------------------------------------------------------|
D|-7-7--7--7-7--7--6-6--6--6-6--6------------------------------------|
A|-----7-------7------6--------6---4-4--4--4-4--4--4-4--4--4-4--4----|
E|-------------------------------------4-------4-------4-------4-----|

G|-------------------------------------|
D|-7-7--7--7-7--7--6-6--6--6-6--6--11~-|
A|-----7-------7------6--------6-------|
E|-------------------------------------|

Chorus

Echoes from the otherworld turn horizons into endless ever present
Echoes / Many otherworlds true horizon start to turn

G|--------------------------------------------------------------------|
D|--------------------------------------------------------------------|
A|--------------------------------------------------------------------|
E|-5-5-0h5--5-5-5--4-4-0h4--4-4-4--9-9-0h9--9-9-9--7-7-0h7/12-12-0h12-|

G|--------------------------------------------------------------------|
D|--------------------------------------------------------------------|
A|--------------------------------------------------------------------|
E|-5-5-0h5--5-5-5--4-4-0h4--4-4-4--9-9-0h9--9-9-9--12-12-0h12--7-7-7--|


After chorus, before verse 2:

G|--------------------------------------------------------------------------|
D|-7-7--7--7-7--7--6-6--6--6-6--6--11-11---11--11-11--11--13-13---13--9-9-9-|
A|-----7-------7-------6-------6---------11----------11---------14----------|
E|--------------------------------------------------------------------------|

G|----------------------------------------------------------|
D|-7-7--7--7-7--7--6-6--6--6-6--6--11-11---11--11-11-11--11~|
A|-----7-------7-------6-------6---------11-----------------|
E|----------------------------------------------------------|

Verse 2

Numberless names withe the force of the ninth wave
Keep to the call that's repeated in the outer regions


G|---------------|
D|-7~-6~---------|
A|-------4~------|
E|---------------|

G|---------------|
D|-7~-6~---------|
A|-------11~-----|
E|---------------|

Chorus 2

Echoes from the otherworld turn the horizon into endless ever present
Echoes / Many otherworlds true horizon makes the endless ever

G|--------------------------------------------------------------------------|
D|--------------------------------------------------------------------------|
A|--------------------------------------------------------------------------|
E|-5-5-0h5--5-5-0h5--4-4-0h4--4-4-0h4--9-9-0h9--9-9-0h9--7-7-0h7/12-12-0h12-|

G|--------------------------------------------------------------------------|
D|--------------------------------------------------------------------------|
A|--------------------------------------------------------------------------|
E|-5-5-0h5--5-5-0h5--4-4-0h4--4-4-0h4--9-9-0h9--9-9-0h9--12-12-0h12--7-7-7--|

Breakdown

Echoes reflect and change they serenade

G|-------------------------------------------------------------------------|
D|-7-7--7--7-7--7--6-6--6--6-6--6--11-11--11--11-11--11--9-9--9--14-14--14-|
A|-----7-------7-------6-------6---------11---------11-------9---------14--|
E|-------------------------------------------------------------------------|

G|--------------------------------------------------------------------------|
D|-7-7--7--7-7--7--6-6--6--6-6--6--11-11--11--11-11--11--14-14----14--9-9-9-|
A|-----7-------7-------6-------6--------11----------11----------14----------|
E|--------------------------------------------------------------------------|

Bridge

G|------|
D|-11~--|
A|------|
E|------|

G|-------------------------|
D|-------------------------|
A|-------------------------|   (Not sure about this part)
E|-9-9-9-9-9-10-10-10-7-7--|

Chorus 3

Echoes from the otherworld turn horizons into endless ever present
Echoes / Many otherworlds true horizon start to turn

G|--------------------------------------------------------------------------|
D|--------------------------------------------------------------------------|
A|--------------------------------------------------------------------------|
E|-5-5-0h5--5-5-0h5--4-4-0h4--4-4-0h4--9-9-0h9--9-9-0h9--7-7-0h7/12-12-0h12-|

G|--------------------------------------------------------------------------|
D|--------------------------------------------------------------------------|
A|--------------------------------------------------------------------------|
E|-5-5-0h5--5-5-0h5--4-4-0h4--4-4-0h4--9-9-0h9--9-9-0h9--12-12-0h12--7-7-7--|

Echoes from the otherworld turn horizons into endless ever present
Echoes / Many otherworlds true horizon start to turn

G|--------------------------------------------------------------------------|
D|--------------------------------------------------------------------------|
A|--------------------------------------------------------------------------|
E|-2-2-0h2--2-2-0h2--4-4-0h4--4-4-0h4--9-9-0h9--9-9-0h9--7-7-0h7/12-12-0h12-|

G|--------------------------------------------------------------------------|
D|--------------------------------------------------------------------------|
A|--------------------------------------------------------------------------|
E|-2-2-0h2--2-2-0h2--4-4-0h4--4-4-0h4--9-9-0h9--9-9-0h9--12-12-0h12--7-7-7--|

Echoes reflect and change they serenade

G|-------------------------------------------------------------------------|
D|-7-7--7--7-7--7--6-6--6--6-6--6--11-11--11--11-11--11--9-9--9--14-14--14-|
A|-----7-------7-------6-------6---------11---------11-------9---------14--|
E|-------------------------------------------------------------------------|

G|--------------------------------------------------------------------------|
D|-7-7--7--7-7--7--6-6--6--6-6--6--11-11--11--11-11--11--14-14----14--9-9-9-|
A|-----7-------7-------6-------6--------11----------11----------14----------|
E|--------------------------------------------------------------------------|

They serenade

G|--------------------------------------------------------------------------|
D|--------------------------------------------------------------------------|
A|--------------------------------------------------------------------------|
E|-2-2-0h2--2-2-0h2--4-4-0h4--4-4-0h4--9-9-0h9--9-9-0h9--7-7-0h7/12-12-0h12-|

G|-------------------------------------------------------|
D|-------------------------------------------------------|
A|-------------------------------------------------------|
E|-2-2-0h2--2-2-0h2--4-4-0h4--4-4-0h4--9-9-0h9--9-9-0h9--|

G|-----------------------------------------------------|
D|-----------------------------------------------------|
A|-----------------------------------------------------|
E|-9-9-0h9--9-9-0h9--9-9-0h9--9-9-0h9--9-9-0h9--9------|

            
            
Suggest correction
Creating personal tab
Creating personal tab
You can edit any tab online and save it as your Personal.

You can edit, replace or remove any tab part or add personal notes – all changes will be seen only by you.

Personal tabs can be accessed anytime from any device, even offline.
Learn more »
comments
print report bad tab
2 comments total.
+1 reply
BlesstheHorizon 16 Aug 23, 2010 03:41 PM

these are great tabs:) Love the song, I tabbed out the guitar to this song too.

0 reply
mastodon1 10 Sep 27, 2014 11:33 AM

didn't like this contribution

guest
You may want to rate the tab now too:
select rating
Wanna post a correction for this tab? Suggest correction