Oops, an error
Loading. Please wait.
We have an official Golden Skans tab made by UG professional guitarists. Check out the tab »
×
by Klaxons
5,003 views 6 this week
3 commentsread comments
1 2 3 4 5
x 8
add to favorites
×
Save as Personal and add changes to this tab that will be seen only by you. Learn more ›
×
You can save this tab as Personal to edit and correct it or add notes. All changes will be seen only by you. Learn more »
launch autoscroll
font size
0
reset
guitar tuner
edit
Autoscroll
slow
fast
+/-
esc
set tempo
stop
Alright song unfortunately no effects on the bass this time but you could turn down the 
a touch
Tabbed by Overdrive_mania

Intro pt1 (x2)
G|-----------|
D|-----5~-7~-|
A|5~-3~------|
E|-----------|

Intro pt2 (x2)
G|--------------------------------|
D|----------------5555555577777777|
A|5555555533333333----------------|
E|--------------------------------|

Verse (Do in order)
G|7----------|7---5------|5~-7-------|7---5------|7-7-7777777|
D|-5-7-------|-5-7-------|--5-7------|-5-7-------|-----------|
A|----5------|-----------|-----5-----|-----------|-----------|
E|-----------|-----------|-----------|-----------|-----------|

Pre-Chorus
G|--------------------------------|
D|----------------5555555577777777|
A|5555555533333333----------------|
E|--------------------------------|

chorus (x2)
G|--------------------------------|
D|----------------5555555577777777|
A|5555555533333333----------------|
E|--------------------------------|


Bit after chorus
G|------------------------------------------------------------------|
D|1212121212121212\1010101010101010---------------------------------|
A|---------------------------------1010101010101010/1212121212121212|
E|------------------------------------------------------------------|

Verse (Do in order)
G|7----------|7---5------|5~-7-------|7---5------|7-7-7777777|
D|-5-7-------|-5-7-------|--5-7------|-5-7-------|-----------|
A|----5------|-----------|-----5-----|-----------|-----------|
E|-----------|-----------|-----------|-----------|-----------|


Pre-Chorus
G|--------------------------------|
D|----------------5555555577777777|
A|5555555533333333----------------|
E|--------------------------------|

chorus
G|--------------------------------|
D|----------------5555555577777777|
A|5555555533333333----------------|
E|--------------------------------|then go straight into this one...

G|------------------------------------------------------------------|
D|1212121212121212\1010101010101010---------------------------------|
A|---------------------------------1010101010101010/1212121212121212|
E|------------------------------------------------------------------|

Bridge (x2)
G|--------------------------------|
D|--------------------------------|
A|5555555533333333----------------|
E|----------------3333333355555555|

AND 1.2.3 end.
HOpe you enjoyed playing it ^-^

            
            
Suggest correction
Creating personal tab
Creating personal tab
You can edit any tab online and save it as your Personal.

You can edit, replace or remove any tab part or add personal notes – all changes will be seen only by you.

Personal tabs can be accessed anytime from any device, even offline.
Learn more »
comments
print report bad tab
3 comments total.
0 reply
Joel B. 325 May 16, 2009 05:39 AM

Well nice tab.
But I think there are some mistakes.
I think the verse isn't correct cant figure anything out right now.
but it's a C and not a D.
G|5-5-5555555|
D|-----------|
A|-----------|
E|-----------|

+1 reply
tocotronics 50 Feb 26, 2010 05:20 AM

nice tab, but i think the verse is played like this:

Verse
G|7----------|5~-7---5---|-7---------|5~-7---5---|5-5-5555555|
D|-5-7-------|----5-7----|--5-7------|----5-7----|-----------|
A|----5------|-----------|-----5-----|-----------|-----------|
E|-----------|-----------|-----------|-----------|-----------|

0 reply
Cal! 511 Sep 10, 2013 01:20 PM

tocotronics is right with his correction, other than that its an ok tab.

guest
You may want to rate the tab now too:
select rating
Wanna post a correction for this tab? Suggest correction