Oops, an error
Loading. Please wait.

Its Magic bass

by Kleeer
3,256 views 3 this week
no commentswrite comment
1 2 3 4 5
1 last vote to show rating
add to favorites
×
Save as Personal and add changes to this tab that will be seen only by you. Learn more ›
×
You can save this tab as Personal to edit and correct it or add notes. All changes will be seen only by you. Learn more »
launch autoscroll
font size
0
reset
guitar tuner
edit
Autoscroll
slow
fast
+/-
esc
set tempo
stop
Author
Kleeer – It’s Magic
Album: I Love To Dance (1979)
Transcription by: Peter Kulcsar


Intro

G:|------------------------------------------------|
D:|-------------------------------24---------------|
A:|---------1-------------1-34--4-----2--22-0------|
E:|--1--1-----3---1--11-3---------------------3-2--|


M8

G:|----------------------------------|
D:|----------------------------------|
A:|--------------------------333333--|
E:|--111111--------------------------|

G:|---------------------------------------------------|
D:|---------------------------------------------------|
A:|--------------------------333333-------------------|
E:|--111111-------------------------------------3/9\--|


Verse/Chorus

G:|-------------------------------------5---5---5-------5--------------|
D:|---------------------------------------------------------7---5---4--|
A:|--------------1-3----------------1h3---3---3---3\--3----------------|
E:|--1--1---11-3-----x---1--1---11------------------------5---3---2----|

G:|-------------------------------------5---5---5-------5-----------5--|
D:|---------------------------------------------------------7---5------|
A:|--------------1-3----------------1h3---3---3---3\--3-----------3----|
E:|--1--1---11-3-----x3--1--1---11------------------------5---3--------|


Bridge

G:|---------------------------------|
D:|-------33---3------33-1----------|
A:|-----3----3---3---------3-1------|
E:|--1-------------01----------3-1--|

G:|---------------------------------|
D:|-------44---4------44-2----------|
A:|-----4----4---4---------4-2------|
E:|--2-------------x2----------4-2--|

G:|---------------------------------|
D:|-------33---3------33-1----------|
A:|-----3----3---3---------3-1------|
E:|--1-------------01----------3-1--|

G:|-----------------------------------------|
D:|-------44---4------44-3--4-5-6------3-5--|
A:|-----4----4---4--------------------------|
E:|--2-------------22---------------1-------|


Bass solo

G:|------------7h9----------7h9----------5h3---------------|
D:|-5h7-----------------------------------------------7h9--|
A:|--------------------------------3--3--------------------|
E:|-----1--1----------1--1----------------------5--5-------|

G:|---------7h9----------7h9----------5h3---------------|
D:|------------------------------------------------7h9--|
A:|-----------------------------3--3--------------------|
E:|--1--1----------1--1----------------------5--5-------|


SONG STRUCTURE:

Intro 6x
M8 1x
Verse/Chorus 3X
Bridge 1x
Verse/Chorus 2x
Bridge 1x
Verse/Chorus 2x
Bridge 1x
M8 2x
Bass solo 4x
Verse/Chorus with some fills – repeat until the end

http://www.soulwalking.co.uk/Kleeer.html

            
            
Suggest correction
Creating personal tab
Creating personal tab
You can edit any tab online and save it as your Personal.

You can edit, replace or remove any tab part or add personal notes – all changes will be seen only by you.

Personal tabs can be accessed anytime from any device, even offline.
Learn more »
Give kudos to tab author, rate the tab!
1 2 3 4 5
comments
print report bad tab
guest
You may want to rate the tab now too:
select rating
Wanna post a correction for this tab? Suggest correction