Oops, an error
Loading. Please wait.

Dragon Pie tab

version 1
version 1

Whole song

Interactive

10,672 views 1 this week
10 commentsread comments
1 2 3 4 5
x 11
add to favorites
×
Save as Personal and add changes to this tab that will be seen only by you. Learn more ›
×
You can save this tab as Personal to edit and correct it or add notes. All changes will be seen only by you. Learn more »
launch autoscroll
font size
0
reset
how to read this tab
guitar tuner
edit
Autoscroll
slow
fast
+/-
esc
set tempo
stop
Artist: Knights Of The Abyss
Song: Dragon Pie

Tabbed By: Mark Webster

Suprised that i'm the first person to tab this song...

Tuning: Drop B
(B F# B E G# C#)

    Guitar 1 (left speaker)
    0:00 - 0:18
C#|---------------------------------------------------|
G#|---------------------------------------------------|
E |---------------------------------------------------|x4
B |-----"7----"6--------------------------------------|
F#|--"5----"4----"5-"8-"7-"8----"4-"5-"7-"8-"7-"5-"4--|
B |--------------------------"5-----------------------|

    0:18 - 0:37
C#|-------------------------------|
G#|-------------------------------|
E |-------------------------------|
B |--------7---0-0-0-0-000000000--|__
F#|--5-8-5---5-0-0-0-0-000000000--|  |
B |------------0-0-0-0-000000000--|  |
            * * * * *********        |
                                     |
C#|--------------------------|       |
G#|--------------------------|       |
E |--------------------------|       |
B |--------7----"8-"7-"5-"7--|       |
F#|--5-8-5---5---------------|       |
B |--------------------------|       | x2
                                     |
C#|-------------------------------|  |
G#|-------------------------------|  |
E |-------------------------------|  |
B |--------7---0-0-0-0-000000000--|  |
F#|--5-8-5---5-0-0-0-0-000000000--|  |
B |------------0-0-0-0-000000000--|  |
               * * * * ********      |
                                     |
C#|---------------------------|      |
G#|---------------------------|______|
E |---------------------------|     
B |---------------------------|     
F#|-----"4-"5-"7-"8-"7-"5-"4--|     
B |--"5-----------------------|     

    0:37 - 0:56
C#|-----------------------------------------------------|
G#|-----------------------------------------------------|
E |-----------------------------------------------------|
B |------0-----0-0---------0-----0-----0-0-----7h8-5h7--|
F#|--5h8-0-4h7-0-0-5h8-4h7-0-5h8-0-4h7-0-0-7h8----------|\
B |------0-----0-0---------0-----0-----0-0--------------| \
      *     * *         *     *     * *                    \
                                                           x2
                                                           /
C#|-----------------------------------------------------| /
G#|-----------------------------------------------------|/
E |------------------------------------------------6h7--|
B |------0-----0-0---------0-----0-----0-0-----7h8------|
F#|--5h8-0-4h7-0-0-5h8-4h7-0-5h8-0-4h7-0-0-7h8----------|
B |------0-----0-0---------0-----0-----0-0--------------|
         *     * *         *     *     * * 

    0:56 - 1:09
C#|-------------------------------------------------------------------|
G#|-------------------------------------------------------------------|
E |-------------------------------------------------------------------|
B |------000-----000-000---------000-----000-----000-000-----7h8-5h7--|
F#|--5h8-000-4h7-000-000-5h8-4h7-000-5h8-000-4h7-000-000-7h8----------|
B |------000-----000-000---------000-----000-----000-000--------------| 
         ***     *** ***         ***     ***     *** ***                 
                                                                      
    1:09 - 1:16                                                                     
C#|-------------------------------------------------------------------| 
G#|-------------------------------------------------------------------|
E |--------------------------------------------------------------6h7--|
B |------000-----000-000---------000-----000-----000-000-----7h8------|
F#|--5h8-000-4h7-000-000-5h8-4h7-000-5h8-000-4h7-000-000-7h8----------|
B |------000-----000-000---------000-----000-----000-000--------------|
         ***     *** ***         ***     ***     *** ***

    1:16 - 1:23
C#|-------------------------------------------------------------------------|
G#|-------------------------------------------------------------------------|
E |-------------------------------------------------------------------------|
B |-------000------000-000-----------000------000------000-000-----7h8-5h7--|
F#|-------000------000-000-----------000------000------000-000-7h8----------|
B |--9h12-000-8h11-000-000-9h12-8h11-000-9h12-000-8h11-000-000--------------|
          ***      *** ***           ***      ***      *** ***

    1:23 - 1:31
C#|-------------------------------------------------------------------------|
G#|-------------------------------------------------------------------------|
E |--------------------------------------------------------------------6h7--|
B |-------000------000-000-----------000------000------000-000-----7h8------|
F#|-------000------000-000-----------000------000------000-000-7h8----------|
B |--9h12-000-8h11-000-000-9h12-8h11-000-9h12-000-8h11-000-000--------------|
          ***      *** ***           ***      ***      *** ***

    1:31 - 1:50
C#|------------------------------------------------------------------------|
G#|------------------------------------------------------------------------|
E |------------------------------------------------------------------------|x4
B |------------------------------------------------------------------------|
F#|--5-----5-----5---5---5---7---7---8-----8-----8h10p8-7-----7-----7h8p7--|
B |----8-8---8-8---8---8---8---8---8---8-8---8-8----------8-8---8-8--------|
       * *   * *   *   *   *   *   *   * *   * *          * *   * *

    1:50 - 1:59
C#|---------------------------------------------------------|
G#|---------------------------------------------------------|
E |-----------------------------------------"7-"6----"5-----|
B |-----------------"5----"5-"7-"8-"7-5h7p5-------"8----"7--|
F#|--"5-"7-"8-"7-"8----"8-----------------------------------|
B |---------------------------------------------------------|

    1:59 - 2:08
C#|------------------------------------------------"10-"9-----"8------|
G#|-------------------"8-----"8-"10-"11-"10-8h10p8--------"11----"10--|
E |--"7-"9-"10-"9-"10----"10------------------------------------------|
B |-------------------------------------------------------------------|
F#|-------------------------------------------------------------------|
B |-------------------------------------------------------------------|

    2:08 - 2:12
C#|---------------------------|
G#|---------------------------|
E |---------------------------|
B |--(0)-0-(00)-(00)-0-(0)-0--| (guitar 2 in commas)
F#|--(0)-0-(00)-(00)-0-(0)-0--|
B |--(0)-0-(00)-(00)-0-(0)-0--|
     (*) * (**) (**) * (*) *

    2:12 - 2:19
C#|------------------------------------------|
G#|------------------------------------------|
E |------------------------------------------|
B |--0-0-00-00-\5-3-5-6-5-3-0-0-00-00-0-0-0--|
F#|--0-0-00-00-\5-3-5-6-5-3-0-0-00-00-0-0-0--|
B |--0-0-00-00-\5-3-5-6-5-3-0-0-00-00-0-0-0--|
     * * ** **              * * ** ** * * *

    2:19 - 2:26
C#|---------------------------------------------------------|
G#|---------------------------------------------------------|
E |------------------------7-------------6------------------|
B |--0-0-00-00---------5h8-----------4h7---0-0-00-00-0-0-0--|
F#|--0-0-00-00-----5h8-----------4h7-------0-0-00-00-0-0-0--|
B |--0-0-00-00-5h8-----------4h7-----------0-0-00-00-0-0-0--|
     * * ** **                             * * ** ** * * *

    2:26 - 2:33
C#|------------------------------------------|
G#|------------------------------------------|
E |------------------------------------------|
B |--0-0-00-00-\5-3-5-6-5-3-0-0-00-00-0-0-0--|
F#|--0-0-00-00-\5-3-5-6-5-3-0-0-00-00-0-0-0--|
B |--0-0-00-00-\5-3-5-6-5-3-0-0-00-00-0-0-0--|
     * * ** **              * * ** ** * * *

    2:33 - 2:37
C#|---------------------------------------------|
G#|---------------------------------------------|
E |---------------------------------------------|
B |--0-0-00-00----------------------------------|
F#|--0-0-00-00-----5h7-----7h8------8h10--------|
B |--0-0-00-00-5h8-----7h8-----8h10------10h12--|
     * * ** **

    2:37 - 2:44
C#|---------------|
G#|---------------|
E |---------------|
B |--0~-8~-7~-3~--|
F#|--0~-8~-7~-3~--|
B |--0~-8~-7~-3~--|

    2:44 - 2:48
C#|-----------------------------------------------|
G#|-----------------------------------------------|
E |-----------------------------------------------|
B |--0-4-3-1--(6-6-5-3)--0-4-3-1--(6-6-5-3)-------|  (guitar 2 in commas)
F#|--0-4-3-1--(6-6-5-3)--0-4-3-1--(6-6-5-3)--<3*>-|
B |--0-4-3-1--(6-6-5-3)--0-4-3-1--(6-6-5-3)-------|
     * * * *  (* * * *)  * * * *  (* * * *)

    2:48 - 2:55
C#|--------------------------------------------------------------------------------|
G#|--------------------------------------------------------------------------------|
E |--------------------------------------------------------------------------------|
B |--0-4-3-1-0-1-0-1-6-5-3-1-0-1-<3*>-0-4-3-1-0-1-0-1------------------------------|
F#|--0-4-3-1-0-1-0-1-6-5-3-1-0-1------0-4-3-1-0-1-0-1-4-6-7-4\5-7-8-5\6-8-9--------|
B |--0-4-3-1-0-1-0-1-6-5-3-1-0-1------0-4-3-1-0-1-0-1-----------------------9-7-6--|
     * * * * * * * * * * * * * *      * * * * * * * *

    2:55 - 3:02
C#|-------------------------------------------------------------------------------------|
G#|-------------------------------------------------------------------------------------|
E |-------------------------------------------------------------------------------------|
B |--0-4-3-0-6-6-5-3-0-4-3-0-6-5-<3*>-0-4-3-0-6-6-5-3-0-4-3-0------------------------0--|
F#|--0-4-3-0-6-6-5-3-0-4-3-0-6-5------0-4-3-0-6-6-5-3-0-4-3-0--9-7-6-7-6-4-6-4-2-1---0--|
B |--0-4-3-0-6-6-5-3-0-4-3-0-6-5------0-4-3-0-6-6-5-3-0-4-3-0------------------------0--|
     * * * * * * * * * * * * * *      * * * * * * * * * * * *                        *

    3:02 - 3:12
C#|--------------------------------------------------------------10--|
G#|---------------------------------------------------11-10-8-10-----|
E |----------------------------------------11-10-8-10----------------|
B |--0-4-3-1-0----------0-4-3-1-12-11-9-11---------------------------|
F#|--0-4-3-1-0----------0-4-3-1--------------------------------------|
B |--0-4-3-1-0-"4-"3-"6-0-4-3-1--------------------------------------|
     * * * * *          * * * *

    3:12 - 3:18
C#|-----------------------------10-10----10-----------------------|
G#|-----------------------------------12----12-9-12-9----9--------|
E |---------------------------------------------------10---10-----|
B |--0-4-3-1-0----------0-4-3-1-------------------------------12--|
F#|--0-4-3-1-0----------0-4-3-1-----------------------------------|
B |--0-4-3-1-0-"4-"3-"6-0-4-3-1-----------------------------------|
     * * * * *          * * * *

    3:18 - 3:21
C#|---------------------|
G#|---------------------|
E |---------------------|
B |--0-4-3-1-0-1-3-4-0--|
F#|--0-4-3-1-0-1-3-4-0--|
B |--0-4-3-1-0-1-3-4-0--|
     * * * * * * * * *

    Guitar 2 (Right Speaker)
    0:00 - 0:18
C#|-----------------------------------------------------|
G#|-----------------------------------------------------|
E |-----------------------------------------------------|x4
B |--------------"4-"7-"5-"8----------------------------|
F#|-----"5----"4----------------"7-"8-"10----"10-"8-"7--|
B |--"8----"7----------------"8-----------"8------------|

    0:18 - 0:20
C#|-------------------------------|
G#|-------------------------------|
E |-------------------------------|
B |--------7---0-0-0-0-000000000--|
F#|--5-8-5---5-0-0-0-0-000000000--|
B |------------0-0-0-0-000000000--| 
               * * * * *********        

    0:20 - 0:23                                      
C#|--------------------------|            
G#|--------------------------|            
E |--------------------------|            
B |--------7----"8-"7-"5-"7--|            
F#|--5-8-5---5---------------|            
B |--------------------------|            
                                       
    0:23 - 0:25                                      
C#|-------------------------------|       
G#|-------------------------------|       
E |-------------------------------|     
B |--------7---0-0-0-0-000000000--|     
F#|--5-8-5---5-0-0-0-0-000000000--|     
B |------------0-0-0-0-000000000--|   
               * * * * *********     
                                 
    0:25 - 0:28                            
C#|-----------------------------|   
G#|-----------------------------|  
E |-----------------------------| 
B |-----------------------------|
F#|-----"7-"8-"10----"10-"8-"7--|
B |--"8-----------"8------------|

    0:28 - 0:30
C#|---------------------------------|
G#|---------------------------------|
E |---------------------------------|
B |---------10---0-0-0-0-000000000--|
F#|--8-12-8----8-0-0-0-0-000000000--|
B |--------------0-0-0-0-000000000--| 
                 * * * * *********

    0:30 - 0:33
C#|------------------------------|
G#|------------------------------|
E |------------------------------|
B |---------10---"12-"10-"8-"10--|
F#|--8-12-8----8-----------------|
B |------------------------------|

    0:33 - 0:35
C#|---------------------------------|
G#|---------------------------------|
E |---------------------------------|
B |---------10---0-0-0-0-000000000--|
F#|--8-12-8----8-0-0-0-0-000000000--|
B |--------------0-0-0-0-000000000--| 
                 * * * * *********

    0:35 - 0:37
C#|-----------------------------|   
G#|-----------------------------|  
E |-----------------------------| 
B |-----------------------------|
F#|-----"7-"8-"10----"10-"8-"7--|
B |--"8-----------"8------------|

    0:37 - 0:46
C#|---------------------------------------------|
G#|---------------------------------------------|
E |---------------------------------------------|x2
B |--0--0-0--0--0--0-0-------10h12--------------|
F#|--0--0-0--0--0--0-0-10h12-------12h13-10h12--|
B |--0--0-0--0--0--0-0--------------------------|
     *  * *  *  *  * *

    0:46 - 0:56
C#|------------------------------------------------------------------------|
G#|------------------------------------------------------------------------|
E |------------------------------------------------------------------------|x2
B |-------00------00-00-----------00------00------00-00-------10h12--------|
F#|--9h12-00-8h10-00-00-9h12-8h10-00-9h12-00-8h10-00-00-10h12-------12h13--|
B |-------00------00-00-----------00------00------00-00--------------------|
          **      ** **           **      **      ** **

    0:56 - 1:31
C#|--------------------------------------------------------------------|
G#|--------------------------------------------------------------------|
E |--------------------------------------------------------------------|x4
B |------000-----000-000---------000-----000-----000-000-----7-8-------|
F#|------000-----000-000---------000-----000-----000-000-7-8-----10-8--|
B |--5h8-000-4h7-000-000-5h8-4h7-000-5h8-000-4h7-000-000---------------|
         ***     *** ***         ***     ***     *** ***

    1:31 - 1:41
C#|-----------------------------------------------------------------------|
G#|-----------------------------------------------------------------------|
E |-----------------------------------------------------------------------|
B |-----------------------------------------------------------------------|
F#|--5-----5-----5-------------------5-----5-----5h7p5-4-----4-----4h5p4--|
B |----7-7---7-7---7-8-8-8-8-5-5-5-5---7-7---7-7---------7-7---7-7--------|
       * *   * *   *   *   *   *   *   * *   * *         * *   * *

    1:41 - 1:45
C#|------------------------------------------------------------------------|
G#|------------------------------------------------------------------------|
E |------------------------------------------------------------------------|
B |------------------------------------------------------------------------|
F#|--5-----5-----5---5---5---7---7---8-----8-----8h10p8-7-----7-----7h8p7--|
B |----8-8---8-8---8---8---8---8---8---8-8---8-8----------8-8---8-8--------|
       * *   * *   *   *   *   *   *   * *   * *          * *   * *

    1:45 - 1:50
C#|-----------------------------------------------------------------------|
G#|-----------------------------------------------------------------------|
E |-----------------------------------------------------------------------|
B |-----------------------------------------------------------------------|
F#|--5-----5-----5-------------------5-----5-----5h7p5-4-----4-----4h5p4--|
B |----7-7---7-7---7-8-8-8-8-5-5-5-5---7-7---7-7---------7-7---7-7--------|
       * *   * *   *   *   *   *   *   * *   * *         * *   * *

    1:50 - 1:59
C#|-----------------------------------------------------|
G#|-----------------------------------------------------|
E |-----------------------------------------------------|
B |----------------------------------------"15-----"14--|
F#|--"5-"7-"8-"7-"8-"10-"8-"7-"8-"7-"8-"12-----"10------|
B |-----------------------------------------------------|

    1:59 - 2:08
C#|----------------------------------------------------------------|
G#|----------------------------------------------------------------|
E |----------------------------------------------------------------|
B |---------------------"8-------------"8-------------"19-----"17--|
F#|--"8-"10-"12-"10-"12----"12-"10-"12----"10-"12-"15-----"13------|
B |----------------------------------------------------------------|

    2:08 - 2:12
C#|-------------------------|
G#|-------------------------|
E |-------------------------|
B |--0-(0)-00-00-(0)-0-(0)--| (guitar 1 in commas)
F#|--0-(0)-00-00-(0)-0-(0)--|
B |--0-(0)-00-00-(0)-0-(0)--|
     * (*) ** ** (*) * (*)

    2:12 - 2:19
C#|-------------------------------------------|
G#|-------------------------------------------|
E |-------------------------------------------|
B |--0-0-00-00-\8-7-8-10-8-7-0-0-00-00-0-0-0--|
F#|--0-0-00-00-\8-7-8-10-8-7-0-0-00-00-0-0-0--|
B |--0-0-00-00-\8-7-8-10-8-7-0-0-00-00-0-0-0--|
     * * ** **               * * ** ** * * *

    2:19 - 2:22
C#|-----------------------------------------|
G#|-----------------------------------------|
E |------------------------7-------------6--|
B |--0-0-00-00---------5h8-----------4h7----|
F#|--0-0-00-00-----5h8-----------4h7--------|
B |--0-0-00-00-5h8-----------4h7------------|
     * * ** **                             

    2:22 - 2:26
C#|--------------------------------|
G#|--------------------------------|
E |--------------------------------|
B |--------------------------------|
F#|------5-----8-------------------|
B |--5h8---7h8---8h10-14p10-10h12--|

    2:26 - 2:30
C#|-------------------------------|
G#|-------------------------------|
E |-------------------------------|
B |-------------------------------|
F#|------8------10------10p7-7h8--|
B |--7h8---8h10----8h10-----------|

    2:30 - 2:37
C#|----------------------------------------|
G#|----------------------------------------|
E |----------------------------------------|
B |--0-0-00-00-0-0-0--0-0-00-00-\8-10-7-8--|
F#|--0-0-00-00-0-0-0--0-0-00-00-\8-10-7-8--|
B |--0-0-00-00-0-0-0--0-0-00-00-\8-10-7-8--|
     * * ** ** * * *  * * ** **

    2:37 - 2:44
C#|---------------|
G#|---------------|
E |---------------|
B |--0~-8~-4~-3~--|
F#|--0~-8~-4~-3~--|
B |--0~-8~-4~-3~--|

    2:44 - 2:48
C#|-------------------------------------------------|
G#|-------------------------------------------------|
E |-------------------------------------------------|
B |--(0-4-3-1)--6-6-5-3--(0-4-3-1)--6-6-5-3---------|  (guitar 1 in commas)
F#|--(0-4-3-1)--6-6-5-3--(0-4-3-1)--6-6-5-3--(<3*>)-|
B |--(0-4-3-1)--6-6-5-3--(0-4-3-1)--6-6-5-3---------|
     (* * * *)  * * * *  (* * * *)  * * * *

    2:48 - 3:02
C#|------------------------------------------------------------------|---------|
G#|------------------------------------------------------------------|---------|
E |------------------------------------------------------------------|-----|
B |--0-4-3-1-0-1-0-1-0-4-3-1-0-1------0-4-3-1-0-1-0-1-0-4-3-1-0-1-1--|------0--|
F#|--0-4-3-1-0-1-0-1-0-4-3-1-0-1-<2*>-0-4-3-1-0-1-0-1-0-4-3-1-0-1-1--|------0--|
B |--0-4-3-1-0-1-0-1-0-4-3-1-0-1------0-4-3-1-0-1-0-1-0-4-3-1-0-1-1--|------0--|
     * * * * * * * * * * * * * *      * * * * * * * * * * * * * * *         *

    3:02 - 3:21
C#|----------------------|------------------------|
G#|----------------------|------------------------|
E |----------------------|--------------------|
B |--0-4-3-1-0-4-3-------|-----0-4-3-1-0-4-3-1-0--|
F#|--0-4-3-1-0-4-3-<2*>--|-----0-4-3-1-0-4-3-1-0--|
B |--0-4-3-1-0-4-3-------|-----0-4-3-1-0-4-3-1-0--|
     * * * * * * *             * * * * * * * *

**************************************************
/ - SLIDE UP TO          h - HAMMER ON
\ - SLIDE DOWN TO        p - PULL OF
~ - VIBRATO              * - PALM MUTE
" - TREMOLO PICKING     <> - ARTIFICAL HARMONIC
**************************************************

            
            
Suggest correction
Creating personal tab
Creating personal tab
You can edit any tab online and save it as your Personal.

You can edit, replace or remove any tab part or add personal notes – all changes will be seen only by you.

Personal tabs can be accessed anytime from any device, even offline.
Learn more »
comments
print report bad tab
10 comments total. Showing first comments.
0 reply
confinedforever 977 Nov 26, 2006 10:27 PM

genious mark!!!! check out my suffokate song that i just tabbed!

-1 reply
SaddamHuDavid 31 Dec 06, 2006 09:28 AM

I'm sorry but this tab is completely wrong. I still give you an A for effort considering the fact that it's Knights of The Abyss.

0 reply
bassss 10 Dec 10, 2006 08:06 AM

CAN ANYONE SAY TOOOOOOOONNNNNNEEEEEEEEEEE DEEEEEEAAAAAAFFFFFFFF!!!!!???? sorry man but this tab isnt right. try playing along with the song so you can get the rigth note!

guest
You may want to rate the tab now too:
select rating
Wanna post a correction for this tab? Suggest correction