Oops, an error
Loading. Please wait.

Disdain tab

version 1
version 1

Whole song

9,255 views 63 this week
4 commentsread comments
1 2 3 4 5
x 9
add to favorites
×
Save as Personal and add changes to this tab that will be seen only by you. Learn more ›
×
You can save this tab as Personal to edit and correct it or add notes. All changes will be seen only by you. Learn more »
launch autoscroll
font size
0
reset
how to read this tab
guitar tuner
edit
Autoscroll
slow
fast
+/-
esc
set tempo
stop
Tuning:Drop C#

[Intro]
(this is played over again until 0:23)
e|------------------------------------------------------------------------------------|
B|-10-----x-12------------------------------------------------------------------------|
G|--0-----x--0------------------------------------------------------------------------|
D|--x--x8-x--x--x8--------------------------------------------------------------------|
A|-10-----x-10------------------------------------------------------------------------|
E|------------------------------------------------------------------------------------|

[Interlude]
(0:24-0:29)
e|--10h12p10------------------10h12p10-------12/14~--14b--|
B|-----------12-8--12b-10--------------12-8---------------|
G|------------------------12------------------------------|
D|--------------------------------------------------------|
A|--------------------------------------------------------|
E|--------------------------------------------------------|

[Chorus]
(listen for strumming pattern)
e|----------------------------------------------------------|
B|----------------------------------------------------------|
G|----------------------------------------------------------|
D|-5--x8-5--x8-5--x8-5--x8-5-55555-5-55555-5-55555-5-55555--|
A|-3-----3-----3-----3-----5-55555-5-55555-5-55555-5-55555--|
E|-------------------------5-55555-5-55555-5-55555-5-55555--|

[Chorus]
(Part 2-Guitar 1 plays the above chords while guitar 2 plays this)
e|-------------------------------------------------------------------------------------|
B|---------------------------------------------3----3----3----3----0----0--------------|
G|-/12p11--------------------------x2-then------4----4----4----4----2----2-------------|
D|-------12--9-12-9-----9b-7-5-5~------------5----5----5----5----5----5-----9b-7-5-5~--|
A|------------------10-----------------------------------------------------------------|
E|-------------------------------------------------------------------------------------|
                  ' '                        '    '     '   '    '    '
(Right before the verse, guitar 1 plays the intro bit twice)

[Verse 1]
(guitar 1)
e|------10~---8-7-3~-------10~---/12-10-3~--|
B|--7h8-----------3~---7h8--------------3~--|
G|----------------0~--------------------0~--|
D|------------------------------------------|
A|------------------------------------------|
E|------------------------------------------|

(guitar 2 comes in playing this at 1:04)
e|------------------------------------------------------|
B|--------------------------------------8-8-8-----------|
G|--------------------------------------x-x-x---all-x2--|
D|--12-12-9-9--7-7-9-9--5-5-4-4-0-0-2p0-5-5-5-----------|
A|------------------------------------------------------|
E|------------------------------------------------------|

[Pre-chorus]
e|----------------------------------------------------------------------------------|
B|----------------------------------------------------------------------------------|
G|----------------------------------------------------------------------------------|
D|-5-5-5-5--5-5-5-5----5-5-4-4--5-5-4-4----5-5-5-5--5-5-5-5--xxxx-5-5-4-4--5-5-4-4--|
A|-2-2-3-3--2-2-3-3----7-7-5-5--7-7-5-5----2-2-3-3--2-2-3-3--xxxx-7-7-5-5--7-7-5-5--|
E|-----------------------------------------------------------xxxx-------------------|

e|----------------------------------------------|
B|----------------------------------------------|
G|----------------------------------------------|
D|-5-5-5-5--5-5-5-5--xxx-5-55-5-5--4-44-xxx-5~--|
A|-2-2-3-3--2-2-3-3--xxx-5-55-5-5--5-55-xxx-3~--|
E|-------------------xxx-5-55-5-5--4-44-xxx-----|

[Chorus] (x2)
(listen for strumming pattern)
e|----------------------------------------------------------|
B|----------------------------------------------------------|
G|----------------------------------------------------------|
D|-5--x8-5--x8-5--x8-5--x8-5-55555-5-55555-5-55555-5-55555--|
A|-3-----3-----3-----3-----5-55555-5-55555-5-55555-5-55555--|
E|-------------------------5-55555-5-55555-5-55555-5-55555--|

[Outro]
e|------------------------------3~-----------|
B|------------------------------3~---all-x2--|
G|------------------------------0~-----------|
D|-5-5-5-4-0-2~----5-5-5-4-0-2--2~-----------|
A|-7-7-7-5-2-3~----7-7-7-5-2-3--3~-----------|
E|-------------------------------------------|


************************************

| x  Dead note
| h  Hammer-on
| p  Pull-off
| b  Bend
| /  Slide up
| ~  Vibrato

************************************

            
            
Suggest correction
Creating personal tab
Creating personal tab
You can edit any tab online and save it as your Personal.

You can edit, replace or remove any tab part or add personal notes – all changes will be seen only by you.

Personal tabs can be accessed anytime from any device, even offline.
Learn more »
comments
print report bad tab
4 comments total. Showing first comments.
0 reply
AdamC1997 122 Jul 23, 2015 02:04 PM

Are you sure C# tuning? It sounds right, but not right if you know what I mean. Too deep to me.

+1 reply
steven_gos 10 Aug 12, 2016 12:55 AM

I think part of the tab's incorrect. what I've played sounds fine to me except the lead guitar of the second half of the chorus. played around with it, submitted a correction.

I usually play it in standard but I tend to improvise when I cover songs so meh. it can be played in standard/drop D, but the lead guitar would be a little wonky to play and Knuckle Puck tend to write their jams in Drop C# from what I've noticed.

0 reply
jacob_moss 124 Aug 20, 2017 02:15 AM

Where exactly is the rhythm tab?

guest
You may want to rate the tab now too:
select rating
Wanna post a correction for this tab? Suggest correction