Oops, an error
Loading. Please wait.

Dire Dire Docks tab

version 2
version 2

Whole song

  • There was a note that needed to be corrected.

Interactive

253 views 6 this week
no commentswrite comment
1 2 3 4 5
2 more votes to show rating
add to favorites
×
Save as Personal and add changes to this tab that will be seen only by you. Learn more ›
×
You can save this tab as Personal to edit and correct it or add notes. All changes will be seen only by you. Learn more »
launch autoscroll
font size
0
reset
how to read this tab
guitar tuner
edit
Autoscroll
slow
fast
+/-
esc
set tempo
stop
Author
About this tab version
There was a note that needed to be corrected. Was this info helpful? Yes No
find a piano buddy or someone who knows some rythym guitar to play with this, probably with a delay pedal 
effect...this is the LEAD GUITAR for the entire song. listen to song to play with rhythm

Section 1 (00:00 - 00:20)
e|--------------------------------15---------------------------------15--------|
B|----------------------------8---15---------------------------6/8---15--------|
G|--------------------4---7------------------------0---2---6-------------------|
D|----------5---5/7----------------------------3-------------------------------|
A|------5----------------------------------3-----------------------------------|
E|--3----------------------------------1---------------------------------------|

e|--------------------------------15---------------------------------15--------|
B|----------------------------8---15---------------------------6/8---15--------|
G|--------------------4---7------------------------0---2---6-------------------|
D|----------5---5/7----------------------------3-------------------------------|
A|------5----------------------------------3-----------------------------------|
E|--3----------------------------------1---------------------------------------|

e|------------------------------15---------------------------------15----------|
B|--------------------------8---15---------------------------6/8---15----------|
G|----------------------7------------------------0---2---6---------------------|
D|----------5---7---8------------------------3---------------------------------|
A|------5--------------------------------3-------------------------------------|
E|--6--------------------------------1-----------------------------------------|

Section 2 (00:20 - 00:41)
e|---------------7---8---7-----------------------------------------------------|
B|------8---10---------------10---8-----------8-------------------8------------|
G|--7---------------------------------7---5-------7---5---4h5/7----------------|
D|-----------------------------------------------------------------------------|
A|-----------------------------------------------------------------------------|
E|-----------------------------------------------------------------------------|

e|---------------7---8---7-----------------------------------------------------|
B|------8---10---------------10---8-----------8-------------------8------------|
G|--7---------------------------------7---5-------7---5---4h5/7----------------|
D|-----------------------------------------------------------------------------|
A|-----------------------------------------------------------------------------|
E|-----------------------------------------------------------------------------|

Section 3 (00:41 - 00:56)
e|------12---10---8---12---10-----------10---8---7---8---7---------------------|
B|--8----------------------------8---8------------------------8----------------|
G|-----------------------------------------------------------------------------|
D|-----------------------------------------------------------------------------|
A|-----------------------------------------------------------------------------|
E|-----------------------------------------------------------------------------|

e|------12---10---8---12---10-----------10---10---8---7------------------------|
B|--8----------------------------8---8---------------------8-------------------|
G|-------------------------------------------------------------9---------------|
D|-----------------------------------------------------------------------------|
A|-----------------------------------------------------------------------------|
E|-----------------------------------------------------------------------------|

Section 2 (00:57 - 01:16)
e|---------------7---8---7-----------------------------------------------------|
B|------8---10---------------10---8-----------8-------------------8------------|
G|--7---------------------------------7---5-------7---5---4h5/7----------------|
D|-----------------------------------------------------------------------------|
A|-----------------------------------------------------------------------------|
E|-----------------------------------------------------------------------------|

e|---------------7---8---7-----------------------------------------------------|
B|------8---10---------------10---8-----------8-------------------8------------|
G|--7---------------------------------7---5-------7---5---4h5/7----------------|
D|-----------------------------------------------------------------------------|
A|-----------------------------------------------------------------------------|
E|-----------------------------------------------------------------------------|

Section 4 (01:17 - 1:27)
e|-----------------------------------------------------------------------------|
B|-----------------------------------------------------------------------------|
G|--|10|---|12|---|14|---------------------------------------------------------|
D|--|xx|---|xx|---|xx|---------------------------------------------------------|
A|--|08|---|10|---|12|---------------------------------------------------------|
E|-----------------------------------------------------------------------------|
these three octaves each strum for a little and move to the next one.

Section 1 (01:27 - 01:47)
e|--------------------------------15---------------------------------15--------|
B|----------------------------8---15---------------------------6/8---15--------|
G|--------------------4---7------------------------0---2---6-------------------|
D|----------5---5/7----------------------------3-------------------------------|
A|------5----------------------------------3-----------------------------------|
E|--3----------------------------------1---------------------------------------|

e|--------------------------------15---------------------------------15--------|
B|----------------------------8---15---------------------------6/8---15--------|
G|--------------------4---7------------------------0---2---6-------------------|
D|----------5---5/7----------------------------3-------------------------------|
A|------5----------------------------------3-----------------------------------|
E|--3----------------------------------1---------------------------------------|

e|------------------------------15---------------------------------15----------|
B|--------------------------8---15---------------------------6/8---15----------|
G|----------------------7------------------------0---2---6---------------------|
D|----------5---7---8------------------------3---------------------------------|
A|------5--------------------------------3-------------------------------------|
E|--6--------------------------------1-----------------------------------------|

Section 2 (01:47 - 02:08)
e|---------------7---8---7-----------------------------------------------------|
B|------8---10---------------10---8-----------8-------------------8------------|
G|--7---------------------------------7---5-------7---5---4h5/7----------------|
D|-----------------------------------------------------------------------------|
A|-----------------------------------------------------------------------------|
E|-----------------------------------------------------------------------------|

e|---------------7---8---7-----------------------------------------------------|
B|------8---10---------------10---8-----------8-------------------8------------|
G|--7---------------------------------7---5-------7---5---4h5/7----------------|
D|-----------------------------------------------------------------------------|
A|-----------------------------------------------------------------------------|
E|-----------------------------------------------------------------------------|

Section 3 (02:09 - 02:22)
e|------12---10---8---12---10-----------10---8---7---8---7---------------------|
B|--8----------------------------8---8------------------------8----------------|
G|-----------------------------------------------------------------------------|
D|-----------------------------------------------------------------------------|
A|-----------------------------------------------------------------------------|
E|-----------------------------------------------------------------------------|

e|------12---10---8---12---10-----------10---10---8---7------------------------|
B|--8----------------------------8---8---------------------8-------------------|
G|-------------------------------------------------------------9---------------|
D|-----------------------------------------------------------------------------|
A|-----------------------------------------------------------------------------|
E|-----------------------------------------------------------------------------|

Section 2 (02:23 - 02:43)
e|---------------7---8---7-----------------------------------------------------|
B|------8---10---------------10---8-----------8-------------------8------------|
G|--7---------------------------------7---5-------7---5---4h5/7----------------|
D|-----------------------------------------------------------------------------|
A|-----------------------------------------------------------------------------|
E|-----------------------------------------------------------------------------|

e|---------------7---8---7-----------------------------------------------------|
B|------8---10---------------10---8-----------8-------------------8------------|
G|--7---------------------------------7---5-------7---5---4h5/7----------------|
D|-----------------------------------------------------------------------------|
A|-----------------------------------------------------------------------------|
E|-----------------------------------------------------------------------------|

Section 4 (02:44 - 2:54)
e|-----------------------------------------------------------------------------|
B|-----------------------------------------------------------------------------|
G|--|10|---|12|---|14|---------------------------------------------------------|
D|--|xx|---|xx|---|xx|---------------------------------------------------------|
A|--|08|---|10|---|12|---------------------------------------------------------|
E|-----------------------------------------------------------------------------|
these three octaves each strum for a little and move to the next one.

Section 1 (02:54 - END)
e|--------------------------------15---------------------------------15--------|
B|----------------------------8---15---------------------------6/8---15--------|
G|--------------------4---7------------------------0---2---6-------------------|
D|----------5---5/7----------------------------3-------------------------------|
A|------5----------------------------------3-----------------------------------|
E|--3----------------------------------1---------------------------------------|
Fade out after just going through the pattern once.

************************************

| h   Hammer-on
| p   Pull-off
| /   Slide up

************************************

            
            
Suggest correction
Creating personal tab
Creating personal tab
You can edit any tab online and save it as your Personal.

You can edit, replace or remove any tab part or add personal notes – all changes will be seen only by you.

Personal tabs can be accessed anytime from any device, even offline.
Learn more »
Give kudos to tab author, rate the tab!
1 2 3 4 5
comments
print report bad tab
guest
You may want to rate the tab now too:
select rating
Wanna post a correction for this tab? Suggest correction