Oops, an error
Loading. Please wait.

Gerudo Valley bass

version 1
version 1

Whole song

  • Different fingerings for some of the faster parts ... Show more

Interactive

193 views 9 this week
no commentswrite comment
1 2 3 4 5
2 more votes to show rating
add to favorites
×
Save as Personal and add changes to this tab that will be seen only by you. Learn more ›
×
You can save this tab as Personal to edit and correct it or add notes. All changes will be seen only by you. Learn more »
launch autoscroll
font size
0
reset
guitar tuner
edit
Autoscroll
slow
fast
+/-
esc
set tempo
stop
About this tab version
Different fingerings for some of the faster parts and re-transcribed for 4 strings bass. Was this info helpful? Yes No
This one I have been messing with on my acoustic bass and altered from the Guitar tab posted by JalPro because
there wasn't a version of it for bass :). Still working on little riff at the very beginning but got the next
part as close as I could.
This is also my first tab ever so be gentle XD

Intro – Repeat as desired

G|--------------------------------------|--------------------------------------|
D|--8888-8-8-8888-8-8-8444-4-4-4444-4-4-|4666-6-6-6666-6-6-6333-3-3-3333-3-3-3/|
A|--------------------------------------|--------------------------------------|
E|--------------------------------------|--------------------------------------|

G|---2-4-5---2-4-5-|---2-4-5---2-4-5-|---0-2-4---0-2-4-|-2-4-2-1--|
D|-2-------2-------|-2-------2-------|-0-------0-------|----------|
A|-----------------|-----------------|-----------------|----------|
E|-----------------|-----------------|-----------------|----------

G|---2-4-5---2-4-5-|---2-4-5---2-4-5-|---0-2-4---0-2-4-|-5-7-5-4--| 
D|-2-------2-------|-2-------2-------|-0-------0-------|----------| 
A|-----------------|-----------------|-----------------|----------| 
E|-----------------|-----------------|-----------------|----------| 

G---5-4-2-|---0-0h2p0---|---4-2-0--|-------------|
D|-2-------|-2---------3-|-0-------|-3-2-3h5p3-2-|
A|---------|-------------|---------|-------------|
E|---------|-------------|---------|-------------|

G|---5-4-2-|---0-0h2p0---|-----2-0-----|
D|-2-------|-2---------3-|---0-----3-2-|
A|---------|-------------|-2-----------|
E|---------|-------------|-------------|

G|------------------------|-------------------------|
D|-10-9-10-9----5---------|-9-7-9-------------------|
A|------------6---8-7-8---|-------10--8-7--8-10-8-7-|
E|------------------------|-------------------------|

G|-----------------|-----------------|-----4-2-----|
D|-------2-------2-|-------3-------3-|---0-----0-2-|
A|---1-2-----1-2---|---1-2-----1-2---|-2-----------|
E|-4-------4-------|-4-------4-------|-------------|

G|----------------------------------|----------------------------|
D|-10-9-10----9-10-12-10-9-10-9-10- |-9-7-9----7-9-10-9-7-9-7-6--|
A|---------12-----------------------|-------10-------------------|
E|----------------------------------|----------------------------|

G|---------------------------------|------------------9-10-12-9-10-9-|
D|-10-9-10----9-10-12-10-9-10-9-10-|-12-10-12-9-10-12----------------|
A|---------12----------------------|---------------------------------|
E|---------------------------------|---------------------------------|

G|-----------------|-----------------|-----------------|----------|
D|-----------------|-----------------|-----------------|-3h5p3-2--|
A|---2-1-2---2-1-2-|---2-1-2---2-1-2-|---4-3-4---4-3-4-|----------|
E|-4-------4-------|-0-------0-------|-2-------2-------|----------|


            
            
Suggest correction
Creating personal tab
Creating personal tab
You can edit any tab online and save it as your Personal.

You can edit, replace or remove any tab part or add personal notes – all changes will be seen only by you.

Personal tabs can be accessed anytime from any device, even offline.
Learn more »
Give kudos to tab author, rate the tab!
1 2 3 4 5
comments
print report bad tab
guest
You may want to rate the tab now too:
select rating
Wanna post a correction for this tab? Suggest correction