Oops, an error
Loading. Please wait.

Majoras Mask Title Theme tab

103 views 3 this week
1 commentread comment
1 2 3 4 5
2 more votes to show rating
add to favorites
×
Save as Personal and add changes to this tab that will be seen only by you. Learn more ›
×
You can save this tab as Personal to edit and correct it or add notes. All changes will be seen only by you. Learn more »
launch autoscroll
font size
0
reset
how to read this tab
guitar tuner
edit
Autoscroll
slow
fast
+/-
esc
set tempo
stop
Standard tuning: EADGBE

     H        H        H        H         
e|--------------------------------------|
B|--3--------2--------0--------2--------|
G|--2--------2--------0--------2--------|
D|--------------------------------------|
A|--------------------------------------|
E|--------------------------------------|

  H        H        H        H         
e|---------------------------------------|
B|---3--------2--------0--------2--------|
G|---2--------2--------0--------2--------|
D|---------------------------------------|
A|---------------------------------------|
E|---------------------------------------|

  |--3-|  |--3--|            |--3-|  |--3--|  |--3-|  |--3-|   
  Q    E  E  E  E  Q    Q    Q    E  E  E  E  Q    E  Q    E   
e|--------------------------------------------------------------|
B|-------3--2--0-----0------------------------------------------|
G|----------------2-------0----2-------2--------0----2----------|
D|--0-------------------------------2-----5--2----------4-------|
A|-------------------4---------2----------------4---------------|
E|--------------------------------------------------------------|

  |--3-|  |--3--|            |--3--|  |--3-|            
  Q    E  E  E  E  Q    Q    E  E  E  Q    E  H         
e|-------------------------------------------------------|
B|-------3--2--0-----0-----------------------------------|
G|----------------2-------0----2--------0----------------|
D|--0-----------------------------5--2-------4--0--------|
A|-------------------4---------2--------4----------------|
E|-------------------------------------------------------|

  |--3-|  |--3--|            |--3-|  |--3--|  |--3-|  |--3-|   
  Q    E  E  E  E  Q    Q    Q    E  E  E  E  Q    E  Q    E   
e|--5----------------3---------2----------------0---------------|
B|-------3--2--0-----0------------------------------------------|
G|----------------2-------0----2-------2--------0----2----------|
D|--0-------------------------------2-----5--2----------4-------|
A|-------------------4---------2----------------4---------------|
E|--------------------------------------------------------------|

  |--3-|  |--3--|            |--3--|  |--3--|            
  Q    E  E  E  E  Q    Q    E  E  E  E  E  E  H         
e|--5----------------3---------2--------0-----------------|
B|-------3--2--0-----0---------------------------3--------|
G|----------------2-------0----2-----------0--------------|
D|--0-----------------------------5--2--4-----2--0--------|
A|-------------------4---------2--------4--L--------------|
E|--------------------------------------------------------|

  |--3--|  |--3--|       |--3-|  |--3--|  |--3--|       |--3-|   
  E  E  E  E  E  E  Q    Q    E  E  E  E  E  E  E  Q    Q    E   
e|--------------------0------------3--2--3--2--------0------------|
B|--3-----3--3--2--3--2------------3--------3-----3--2------------|
G|--2----------------------2------------------------------2-------|
D|--0--L----------------------------------------------------------|
A|--------------------4------------2--------2--L-----4------------|
E|----------------------------------------------------------------|

  |--3--|  |--3--|  |--3-|  |--3-|  |--3--|  |--3--|            
  E  E  E  E  E  E  Q    E  Q    E  E  E  E  E  E  E  H         
e|--------------------0---------------3--2--3--2-----------------|
B|--3-----3--3--2--3--2----2----------3--------------2--3--------|
G|--2-------------------------2-------------------------2--------|
D|--0--L---------------------------------------------------------|
A|--------------------4---------------2--------4--L-----5--------|
E|---------------------------------------------------------------|

  |--3--|  |--3--|       |--3-|  |--3--|  |--3--|  |--3-|  |--3-|   
  E  E  E  E  E  E  Q    Q    E  E  E  E  E  E  E  Q    E  Q    E   
e|--------------------0------------3--2--3--2--------0---------------|
B|--3-----3--3--2--3--2------------3--------3-----3--2----2----------|
G|--2----------------------2---------------------------------2-------|
D|--0--L-------------------------------------------------------------|
A|--------------------4------------2--------2--L-----4---------------|
E|-------------------------------------------------------------------|

  |--3--|  |--3--|       |--3-|  |--3--|  |--3--|            
  E  E  E  E  E  E  Q    Q    E  E  E  E  E  E  E  H         
e|--------------------0------------3--2--3--2-----------------|
B|--3-----3--3--2--3--2------------3--------------2--3--------|
G|--2----------------------2-------------------------2--------|
D|--0--L------------------------------------------------------|
A|--------------------4------------2--------4--L-----5--------|
E|------------------------------------------------------------|

    H        E  Q.     H        E  Q.      
e|--7--------5---------3--------2---------|
B|----------------------------------------|
G|----------------------------------------|
D|--5--------4---------2--------0---------|
A|----------------------------------------|
E|----------------------------------------|

    H        E  E  E  E  H        H         
e|--7--------5-----3-----2--------0--------|
B|-----------------------------------------|
G|-----------------------------------------|
D|--5--------4-----2-----0-----------------|
A|--------------------------------4--------|
E|-----------------------------------------|

    H        E  Q.      H        E  Q.      
e|--7--------5---------10--------9---------|
B|-----------------------------------------|
G|-----------------------------------------|
D|--5--------4----------7--------5---------|
A|-----------------------------------------|
E|-----------------------------------------|

                     |--3-|   |--3--|             
   H        H        Q    E   E  E  E   H         
e|---9--------8--------7-------10--------10--------|
B|-------------------------------------------------|
G|---9--------8--------7----7---------7------------|
D|-------------------------------------------------|
A|--10--------9--------8-----------L---------------|
E|-------------------------------------------------|

  |--3-|  |--3--|            |--3-|  |--3--|  |--3-|  |--3-|   
  Q    E  E  E  E  Q    Q    Q    E  E  E  E  Q    E  Q    E   
e|--------------------------------------------------------------|
B|-------3--2--0-----0------------------------------------------|
G|----------------2-------0----2-------2--------0----2----------|
D|--0-------------------------------2-----5--2----------4-------|
A|-------------------4---------2----------------4---------------|
E|--------------------------------------------------------------|

  |--3-|  |--3--|            |--3--|  |--3-|            
  Q    E  E  E  E  Q    Q    E  E  E  Q    E  H         
e|-------------------------------------------------------|
B|-------3--2--0-----0-----------------------------------|
G|----------------2-------0----2--------0----------------|
D|--0-----------------------------5--2-------4--0--------|
A|-------------------4---------2--------4----------------|
E|-------------------------------------------------------|

  |--3-|  |--3--|            |--3-|  |--3--|  |--3-|  |--3-|   
  Q    E  E  E  E  Q    Q    Q    E  E  E  E  Q    E  Q    E   
e|--5----------------3---------2----------------0---------------|
B|-------3--2--0-----0------------------------------------------|
G|----------------2-------0----2-------2--------0----2----------|
D|--0-------------------------------2-----5--2----------4-------|
A|-------------------4---------2----------------4---------------|
E|--------------------------------------------------------------|

  |--3-|  |--3--|            |--3--|  |--3--|            
  Q    E  E  E  E  Q    Q    E  E  E  E  E  E  H         
e|--5----------------3---------2--------0-----------------|
B|-------3--2--0-----0---------------------------3--------|
G|----------------2-------0----2-----------0--------------|
D|--0-----------------------------5--2--4-----2--0--------|
A|-------------------4---------2--------4--L--------------|
E|--------------------------------------------------------|

  |--3--|  |--3--|       |--3-|  |--3--|  |--3--|       |--3-|   
  E  E  E  E  E  E  Q    Q    E  E  E  E  E  E  E  Q    Q    E   
e|--------------------0------------3--2--3--2--------0------------|
B|--3-----3--3--2--3--2------------3--------3-----3--2------------|
G|--2----------------------2------------------------------2-------|
D|--0--L----------------------------------------------------------|
A|--------------------4------------2--------2--L-----4------------|
E|----------------------------------------------------------------|

  |--3--|  |--3--|  |--3-|  |--3-|  |--3--|  |--3--|            
  E  E  E  E  E  E  Q    E  Q    E  E  E  E  E  E  E  H         
e|--------------------0---------------3--2--3--2-----------------|
B|--3-----3--3--2--3--2----2----------3--------------2--3--------|
G|--2-------------------------2-------------------------2--------|
D|--0--L---------------------------------------------------------|
A|--------------------4---------------2--------4--L-----5--------|
E|---------------------------------------------------------------|

  |--3--|  |--3--|       |--3-|  |--3--|  |--3--|  |--3-|  |--3-|   
  E  E  E  E  E  E  Q    Q    E  E  E  E  E  E  E  Q    E  Q    E   
e|--------------------0------------3--2--3--2--------0---------------|
B|--3-----3--3--2--3--2------------3--------3-----3--2----2----------|
G|--2----------------------2---------------------------------2-------|
D|--0--L-------------------------------------------------------------|
A|--------------------4------------2--------2--L-----4---------------|
E|-------------------------------------------------------------------|

  |--3--|  |--3--|       |--3-|  |--3--|  |--3--|            
  E  E  E  E  E  E  Q    Q    E  E  E  E  E  E  E  H         
e|--------------------0------------3--2--3--2-----------------|
B|--3-----3--3--2--3--2------------3--------------2--3--------|
G|--2----------------------2-------------------------2--------|
D|--0--L------------------------------------------------------|
A|--------------------4------------2--------4--L-----5--------|
E|------------------------------------------------------------|

    H        E  Q.     H        E  Q.      
e|--7--------5---------3--------2---------|
B|----------------------------------------|
G|----------------------------------------|
D|--5--------4---------2--------0---------|
A|----------------------------------------|
E|----------------------------------------|

    H        E  E  E  E  H        H         
e|--7--------5-----3-----2--------0--------|
B|-----------------------------------------|
G|-----------------------------------------|
D|--5--------4-----2-----0-----------------|
A|--------------------------------4--------|
E|-----------------------------------------|

    H        E  Q.      H        E  Q.      
e|--7--------5---------10--------9---------|
B|-----------------------------------------|
G|-----------------------------------------|
D|--5--------4----------7--------5---------|
A|-----------------------------------------|
E|-----------------------------------------|

     H        H        W                  
e|---9--------8--------7----------------|
B|--------------------------------------|
G|---9--------8--------7----------------|
D|--------------------------------------|
A|--10--------9--------8----------------|
E|--------------------------------------|


***********************************************************

|W - whole
|H - half
|Q - quarter
|E - 8th
|S - 16th
|T - 32nd
|X - 64th
|. - note dotted
||-n-|  - n-tuplets
|L - tied note
|x - dead note
|g - grace note
|(n) - ghost note
|> - accentuded note
|NH - natural harmonic
|AH - artificial harmonic
|TH - tapped harmonic
|SH - semi harmonic
|PH - pitch harmonic
|h - hammer on
|p - pull off
|b - bend
|br - bendRelease
|pb - preBend
|pbr - preBendRelease
|brb - bendReleaseBend
|\n/ - tremolo bar dip
|\n - tremolo bar dive
|-/n - tremolo bar Release up
|/n\ - tremolo bar inverted dip
|/n - tremolo bar return
|-\n - tremolo bar Release down
|S - shift slide
|s - legato slide
|/ -  slide into from below or out of upwards
|\ -  slide into from above or out of downwards
|~ - vibrato
|W - wide vibrato
|tr - trill
|TP - tremolo picking
|T - tapping
|S - slap
|P - pop
|< - fade in
|^ - brush up
|v - brush down

***********************************************************

            
            
Suggest correction
Creating personal tab
Creating personal tab
You can edit any tab online and save it as your Personal.

You can edit, replace or remove any tab part or add personal notes – all changes will be seen only by you.

Personal tabs can be accessed anytime from any device, even offline.
Learn more »
Give kudos to tab author, rate the tab!
1 2 3 4 5
comments
print report bad tab
1 comment total.
0 reply
fergin8or 10 Aug 25, 2017 08:38 PM

The intro was good but you overcomplicated the main sections,there are clock town tabs that you could use to fix up the main part

guest
You may want to rate the tab now too:
select rating
Wanna post a correction for this tab? Suggest correction